Oops, an error
Loading. Please wait.

Dragon Ball Z - El Poder Nuestro Es (2Do Opening) Tab

1,729 views 6 this week
no commentswrite comment
1 2 3 4 5
2 more votes to show rating
add to favorites
launch autoscroll
font size
0
reset
how to read this tab
guitar tuner
Autoscroll
slow
fast
+/-
esc
set tempo
stop
e-------------------------------------------------
B--------------------------------(8-7--7?-7)------
G--9-7-9-9--9--9--11-11-9--7-9v------9---9--------
D-------------------------------------------------
A-------------------------------------------------
E-------------------------------------------------

e----7-7-5----------------------(7-10-7-6-5-------
B--5---------8-8-7------7-5v----------------8)----
G---------------------7---------------------------
D-------------------------------------------------
A-------------------------------------------------
E-------------------------------------------------

e-------------------------------------------------
B----5-----------------------7-5v---(8-7---7---7)-
G--7---9-9--9--9--11-11-9--7-------------9---9----
D-------------------------------------------------
A-------------------------------------------------
E-------------------------------------------------

e----7-7-5----------------------------------------
B--5--------8-8-7-------5v------------------------
G-------------------7-7---------------------------
D-----------------------------------4---4---------
A-----------------------------------2---2---------
E-------------------------------------------------

e---------10--------------------------------------
B---12-10------13-12-10-12------10-12-------------
G----------------------------12-------------------
D-------------------------------------------------
A-------------------------------------------------
E-------------------------------------------------

e--------10---------------------------------------
B--12-10------13-12-10-12-12-12-12-12-13-12-12v---
G-------------------------------------------------
D-------------------------------------------------
A-------------------------------------------------
E-------------------------------------------------

e--15-14-12-10---10-12-12---10--------------------
B------------------------------12-12--------------
G-------------------------------------------------
D-------------------------------------------------
A-------------------------------------------------
E-------------------------------------------------

e--15-14-12-10----------10-12-12------------------
B-----------------12-12---------------------------
G-------------------------------------------------
D-------------------------------------------------
A-------------------------------------------------
E-------------------------------------------------

e--12-14-15-15--12---15-15--12---14-14----14-14---
B--------------------------------------15-------15
G-------------------------------------------------
D-------------------------------------------------
A-------------------------------------------------
E-------------------------------------------------

e--15--14--12--10---8-8-8-10-10-10--7------14-15--
B-------------------------------------------------
G-------------------------------------------------
D-------------------------------------------------
A-------------------------------------------------
E-------------------------------------------------

v -> vibrato

() -> lo que esta entre parentesis son arreglos se pueden
omitir para mayor facilidad

Se debe fijar muy bien en los arreglos y cortes de la cancion
Suggest correction
Give kudos to tab author, rate the tab!
1 2 3 4 5
comments
print report bad tab
guest
Wanna post a correction for this tab? Suggest correction