Oops, an error
Loading. Please wait.

Dragon Ball Z -Angeles Fuimos Tab

version 1
version 1

Whole song

7,563 views 69 this week
no commentswrite comment
1 2 3 4 5
2 more votes to show rating
add to favorites
launch autoscroll
font size
0
reset
how to read this tab
guitar tuner
Autoscroll
slow
fast
+/-
esc
set tempo
stop
Help us to improve Ultimate-Guitar.com Take our survey!
×
Estos punteos dan mejor sonido a la cancion.
Aquí propongo los punteos de la canción que pueden ser así:

¡Que viva Madrid(Cundinamarca)! Uuuuuuuh siiiiii!!!!


F#m D  E  F#/

e--0--2--3--5--3--2--0-----|
b--------------------------|
g--------------------------|
d--------------------------|
a--------------------------|
E--------------------------|

F#m  D  E  C#

e--7--5-----5--------------|
b--------8-----8--7--5-----|
g--------------------------|
d--------------------------|
a--------------------------|
E--------------------------|

F#m           D
Hace tiempo que los recuerdos
E             F#m
Se van alejando ya

e--0--2--3--5--3--2--0-----|
b--------------------------|
g--------------------------|
d--------------------------|
a--------------------------|
E--------------------------|

F#m            D
Ángeles fuimos y desde el cielo
E           F#m          E
Semillas dimos de amor
A                    D            E
La tristeza de este mundo se borró
        A
Y viendo el cielo azul
A                 D                E
La amistad y el amor siempre brillaron
             A
Y hoy también lo harán

F           G       C
Mis alas no tengo, desaparecieron ya
G       F           G      C#
Pero conmigo tengo el poder

                 A                 D
En tu pupila el arco iris se reflejó
     E                        F#m
Y el amor florece en tu corazón
  E    D         A
Sigue teniendo fe y esperanza
    Bm                E
Que el mañana va a cambiar

          A              D
Este desierto se transformará
  C#          Fm           F#m
Paraíso es lo que pronto será
E   D         A
Abre tu corazón
        Bm         E        F#m
La magia y el amor... son verdad
Suggest correction
Give kudos to tab author, rate the tab!
1 2 3 4 5
comments
print report bad tab
guest
You may want to rate the tab now too:
select rating
Wanna post a correction for this tab? Suggest correction