Oops, an error
Loading. Please wait.

Dragon Ball Z -Angeles Fuimos Tab

version 2
version 2

Whole song

1,156 views 6 this week
no commentswrite comment
1 2 3 4 5
1 last vote to show rating
add to favorites
launch autoscroll
font size
0
reset
how to read this tab
guitar tuner
Autoscroll
slow
fast
+/-
esc
set tempo
stop
Help us to improve Ultimate-Guitar.com Take our survey!
×
angeles fuimos
dedicada para una chica muy especial
por siempre te quiero genesis


e)2-4-5--2-2-2-4-5--4-4-5--7-5--
b)------------------------------

e)---------4-5---2-2-2-4-5---
b)7-7---7--------------------

e)4-5-7-5--------------------------
b)---------7-7----12-12-12-12-12-12

e)12-------------------------9-10-10-9-9
b)-----14-15-14-12--12----12------------

e)------------9---7--5--9--7--7-9-7-5-5
b)10-10-10-10---------------------------

e)5----5--7--8-7-----8-8-8-8-10-12---13-10--------7---8-7
b)-----------------8--------------------------10---------

e)7--8--10--12------12------12---12--10--9---
b)---------------------14-12-----------------

e)9-10-12-14-------------------------------12-9-
b)--------------15--14--12-----12-12-12-12------

e)9-7---5-4-5-5-------5-4-5--9---7-7-5-7---12--10--9
b)---------------------------------------------------

e)9---10-12-14---14-14-13---13-13-13-14-16-17-
b)--------------------------------------------

e)17--16---14--16--17-----------16--17--17----------------12-9-14
b)----------------------17--17----------------15-14-12-----------


aqui esta para los fanaticos de dragon ball z
disculpen cualquier erro hay me corrigen solo tienen que cojer
el ribmo de la cancion y listo saludos
para todos los que juegan ju-gi-oh
Suggest correction
Give kudos to tab author, rate the tab!
1 2 3 4 5
comments
print report bad tab
guest
You may want to rate the tab now too:
select rating
Wanna post a correction for this tab? Suggest correction