Oops, an error
Loading. Please wait.

El Chavo Del 8 Tab

version 2
version 2

Whole song

176 views 6 this week
no commentswrite comment
1 2 3 4 5
3 more votes to show rating
add to favorites
×
Save as Personal and add changes to this tab that will be seen only by you. Learn more ›
×
You can save this tab as Personal to edit and correct it or add notes. All changes will be seen only by you. Learn more »
save as personal
new!
launch autoscroll
font size
0
reset
how to read this tab
guitar tuner
Autoscroll
slow
fast
+/-
esc
set tempo
stop
Es muy facil de aprender.
Les recomiendo que para que la entiendan bien
se ayuden con esto http
://

E----------------------------------------
B---5-5-5---5-5-5----5---5---5-5---------
G-0-------0--------0---0---0-------------
D----------------------------------------
A----------------------------------------
E----------------------------------------
                                         _
E---------------------------------------- |
B---5-5-5---5-5-5----5---5---5-5--------- |
G-0-------0--------0---0---0------------- | Este es programa N1
D---------------------------------------- | de la television humoristica
A---------------------------------------- | EL CHAVO
E----------------------------------------_|

                                         _
E-3-0-0-0-3-0-0--|-8-7-5----------------| |
B----------------|-------8-6-5-3--------| |
G----------------|---------------5-7-9--| |
D----------------|----------------------| |
A----------------|----------------------| |
E----------------|----------------------| | Interpretado por el
                       TOCAR RÁPIDO       | super comediante
                                          | Chespirito
E-3-0-0-0-3-0-0--|-8-7-5----------------| |
B----------------|--------8-6-5--8-10---| |
G----------------|----------------------| |
D----------------|----------------------| |
A----------------|----------------------| |
E----------------|----------------------|_|
                       TOCAR RÁPIDO

                                         _
E-8-5-5-5--10-7-7-7--10-7-10-7--12-8-12-8 |
B---------------------------------------- |
G---------------------------------------- | Con Carlos Villagran
D---------------------------------------- | como Quico
A---------------------------------------- |
E----------------------------------------_|

                                         _
E-3-0-0-0-3-0-0--|-8-7-5----------------| |
B----------------|-------8-6-5-3--------| |
G----------------|---------------5-7-9--| |Ramon Valdez como
D----------------|----------------------| |Don Ramon
A----------------|----------------------| |
E----------------|----------------------|_|
                       TOCAR RÁPIDO
                                         _
E-3-0-0-0-3-0-0--|-8-7-5----------------| |
B----------------|--------8-6-5--8-10---| |
G----------------|----------------------| |Florinda Meza como
D----------------|----------------------| |Doña Florinda
A----------------|----------------------| |
E----------------|----------------------|_|
                       TOCAR RÁPIDO
                                         _
E-10-5-5-5--6-3---3-5-6/8-8/10-10-10-8--- |
B---------------------------------------- |
G---------------------------------------- | y Como Popis
D---------------------------------------- |
A---------------------------------------- |
E---------------------------------------- |
                                          |
E-6-8-6-8---3-5-6/7-7/8-3-3-3-5-1-------- |
B---------------------------------------- |
G---------------------------------------- |
D---------------------------------------- |
A---------------------------------------- | Ruben Aguirre Como
E---------------------------------------- | EL Profesor Jirafales
                                          |
E---------------------------------------- |
B-5-7-8-9-10-10-10-8-7-5-3--------------- |
G---------------------------------------- |
D---------------------------------------- |
A---------------------------------------- |
E----------------------------------------_|

                                         _
E-3-0-0-0-3-0-0--|-8-7-5----------------| |
B----------------|-------8-6-5-3--------| |
G----------------|---------------5-7-9--| |
D----------------|----------------------| |
A----------------|----------------------| |
E----------------|----------------------| | Edgar Vivar como
                       TOCAR RÁPIDO       | El Señor Barriga
                                          |
E-3-0-0-0-3-0-0--|-8-7-5----------------| |
B----------------|--------8-6-5--8-10---| |
G----------------|----------------------| |
D----------------|----------------------| | Y como Ñoño
A----------------|----------------------| |
E----------------|----------------------|_|
                       TOCAR RÁPIDO

                                         _
E-8-5-5-5--10-7-7-7--10-7-10-7--12-8-12-8 |
B---------------------------------------- |
G---------------------------------------- | Y Maria Antonienta
D---------------------------------------- | de las Nieves
A---------------------------------------- | como la Chilindrina
E----------------------------------------_|

                                         _
E-3-0-0-0-3-0-0--|-8-7-5----------------| |
B----------------|-------8-6-5-3--------| |
G----------------|---------------5-7-9--| |Direccion General
D----------------|----------------------| |Enrique Segoviano
A----------------|----------------------| |
E----------------|----------------------|_|
                       TOCAR RÁPIDO
Espero que les guste.
Suggest correction
Give kudos to tab author, rate the tab!
1 2 3 4 5
comments
print report bad tab
guest
Wanna post a correction for this tab? Suggest correction