Oops, an error
Loading. Please wait.

El Chavo Del 8 Tab

version 3
version 3

Whole song

191 views 1 this week
no commentswrite comment
1 2 3 4 5
1 last vote to show rating
add to favorites
launch autoscroll
font size
0
reset
how to read this tab
guitar tuner
×
Best way to learn
"El Chavo Del 8"
Autoscroll
slow
fast
+/-
esc
set tempo
stop
Pues es otra manera de tocar el tema, para mí suena mejor así..
ahi les va.

e|-----------------10-8-6--------------------------------10-8-6-----------|
B|-/6-------/6------------10-8-6-------6--/6-------/6-----------10-8-6-7-8|
G|----7-7-7----7-7---------------8-7-8-------7-7-7----7-7-----------------|
D|------------------------------------------------------------------------|
A|------------------------------------------------------------------------|
E|------------------------------------------------------------------------|

e|--/6-------/8----------8----8----/10----10------------------------------|
B|-----8-8-8----10-10-10---10---10-----11----11---------------------------|
G|------------------------------------------------------------------------|
D|------------------------------------------------------------------------|
A|------------------------------------------------------------------------|
E|------------------------------------------------------------------------|

e|-----------------10-8-6-------------------------------10-8-6-----------6|
B|-/6-------/6------------10-8-6-------6-/6-------/6-----------10-8-6-10--|
G|----7-7-7----7-7---------------8-7-8------7-7-7----7-7------------------|
D|------------------------------------------------------------------------|
A|------------------------------------------------------------------------|
E|------------------------------------------------------------------------|


e|--10----------6---------6-8-10-10-10-8-6---------6-8-8-8-8--------------|
B|-----10-10-10---8--8-10------------------10-8-10------------------------|
G|------------------------------------------------------------------------|
D|------------------------------------------------------------------------|
A|------------------------------------------------------------------------|
E|------------------------------------------------------------------------|
--La misma línea continúa abajo

e|-------------------6-8-8-8-6--------------------------------------------|
B|-8-8-8-10-6-6-8-10-----------10-8-6-------------------------------------|
G|------------------------------------------------------------------------|
D|------------------------------------------------------------------------|
A|------------------------------------------------------------------------|
E|------------------------------------------------------------------------|

Espero que les haya sido útil.

Opiniones al correo por favor.. sean buenas o malas..
Suggest correction
Give kudos to tab author, rate the tab!
1 2 3 4 5
comments
print report bad tab
guest
You may want to rate the tab now too:
select rating
Wanna post a correction for this tab? Suggest correction