Oops, an error
Loading. Please wait.

El Chavo Del Ocho Tab

version 1
version 1

Whole song

220 views 3 this week
no commentswrite comment
1 2 3 4 5
x 5
add to favorites
launch autoscroll
font size
0
reset
how to read this tab
guitar tuner
×
Best way to learn
"El Chavo Del Ocho"
Autoscroll
slow
fast
+/-
esc
set tempo
stop
e|-----------------0---------------------------------------
B|-------------------3-1-0---------------------------------
G|-0--------0--------------2-0-------0---------------------
D|---2-2-2----2-2--------------3-2-3-----------------------
A|---------------------------------------------------------
E|---------------------------------------------------------

e|-----------------0---------------------------------------
B|-------------------3-1-0----------0-1--------------------
G|-0--------0--------------2-0-----------------------------
D|---2-2-2----2-2------------------------------------------
A|---------------------------------------------------------
E|---------------------------------------------------------

e|------------------------------0---0----------------------
B|-1---------1---1----3-0-3-0-----1---1--------------------
G|---2-2-2-----2---2---------------------------------------
D|---------------------------------------------------------
A|---------------------------------------------------------
E|---------------------------------------------------------

e|-----------------0---------------------------------------
B|-------------------3-1-0----------0-1--------------------
G|-0--------0--------------2-0-----------------------------
D|---2-2-2----2-2------------------------------------------
A|---------------------------------------------------------
E|---------------------------------------------------------
Suggest correction
comments
print report bad tab
guest
You may want to rate the tab now too:
select rating
Wanna post a correction for this tab? Suggest correction