Oops, an error
Loading. Please wait.

El Chavo Del Ocho Tab

version 2
version 2

Whole song

69 views 1 this week
no commentswrite comment
1 2 3 4 5
3 more votes to show rating
add to favorites
launch autoscroll
font size
0
reset
how to read this tab
guitar tuner
×
Best way to learn
"El Chavo Del Ocho"
Autoscroll
slow
fast
+/-
esc
set tempo
stop
e|-----------------------|-------------------|-0-------0-----9-|
B|-----------------------|-------------------|---2-2-2---2-2---|
G|---/2-/2-/2---/2-/2-/2-|---/2---/2---/2-/2-|-----------------|
D|-----------------------|-------------------|-----------------|
A|-0----------0----------|-0---------0-------|-0---------------|
E|---------0----------0--|------0------------|-----4---2---0---|

e|-7--------------0-------|0-------0-----9-|-7-----------2---|
B|--10h9h7----------------|--2-2-2---2-2---|--10h9h7---------|
G|--------9-7-6-7---------|----------------|--------9-10---2-|
D|-0----------------------|----------------|-0-------------4-|
A|------------------------|0---------------|---------------4-|
E|--------0---5-4-2h0h2h4h|----4---2---0---|--------0-9--2-2-|

e|-5-2-2-2-7-4-4-4-|-7-4-7-4-9----9----|-0-------0-----9-|-7--------
B|-----------------|-----------10---10-|---2-2-2---2-2---|--10h9h7--
G|-----------------|-------------------|-----------------|--------9-
D|-----4-------6---|-----6-------------|-----------------|-0--------
A|-----------------|---------0----7----|-0---------------|----------
E|-2-------0-------|-0-----------------|-----4---2---0---|--------0-

e|-------0-------|0-------0-----9-|-7---------------|-9----------
B|---------------|--2-2-2---2-2---|--10h9h7--9-10---|---9-9-9-10-
G|-7-6-7---------|----------------|--------9--------|------------
D|---------------|----------------|-0---------------|------------
A|---------------|0---------------|------------0--0-|-----8---9--
E|---5-4-2h0h2h4h|----4---2---0---|--------0--------|-9----------

e|---------7h|9-9-9-7---7-------------|7------------------|7-7-
B|-7-7h9h10--|--------10-10h9h7h7h9h10|--7-7-7-9----7h9h10|----
G|-----------|------------------------|----------9-9------|----
D|-----------|6-----------------------|-------------------|----
A|-----------|--------9---------------|----6---7----------|9---
E|---9-------|----9-----------5---6---|7-----------7------|----

e|-7------------|-X-X-5h5-------|-0-------0-----9-|-7------------
B|--10h9h7------|-X-X-8h8-------|---2-2-2---2-2---|--10h9h7------
G|--------9-----|-X-X-----------|-----------------|--------9-7-6-
D|--------------|-X-X-----------|-----------------|-0------------
A|--------7-----|-X-X-----------|-0---------------|--------------
E|-7--------7-0-|-X-X-----2//12-|-----4---2---0---|--------0---5-

e|---0-------|0-------0-----9-|-7-----------2---|-5-2-2-2-7-4-4-4-|
B|-----------|--2-2-2---2-2---|--10h9h7---------|-----------------|
G|-7---------|----------------|--------9-10---2-|-----------------|
D|-----------|----------------|-0-------------4-|-----4-------6---|
A|-----------|0---------------|---------------4-|-----------------|
E|-4-2h0h2h4h|----4---2---0---|--------0-9--2-2-|-2-------0-------|

e|-7-4-7-4-9----9----|-0-------0-----9-|-7--------------0-------|
B|-----------10---10-|---2-2-2---2-2---|--10h9h7----------------|
G|-------------------|-----------------|--------9-7-6-7---------|
D|-----6-------------|-----------------|-0----------------------|
A|---------0----7----|-0---------------|------------------------|
E|-0-----------------|-----4---2---0---|--------0---5-4-2h0h2h4h|

e|0-------0-----9-|-7----------------|--------------------|
B|--2-2-2---2-2---|--10h9h7--9-10----|-----3---2/3h0/2----|
G|----------------|--------9---------|-2-2---2--------2-0-|
D|----------------|-0----------------|--------------------|
A|0---------------|------------0---0-|-5---0----------0---|
E|----4---2---0---|--------0-----0---|---------0----------|

e|-----------5h4h3h2-------|---------------2-5-|-2-2h2h5-5-3-0-
B|------------------5h3h2h0|----3---2/3h1h2----|---------------
G|-------4-4---------------|2-2---2------------|---------------
D|-4-4h4h4---2-------------|-------------------|-4-------------
A|-5----------------0------|5---0----------4---|-------2-------
E|-------------------------|--------2----------|-----------0---

e|--------|-------------------|-----------5h4h3h2--------|----2-2-
B|-3h2h1h0|----3---2/3h0/2----|------------------5h3h2h0h|3-3-----
G|--------|2-2---2--------2-0-|-------4-4----------------|--------
D|--------|-------------------|-4-4h4h4---2--------------|0-------
A|-0------|5---0----------0---|-5----------------0-------|----3---
E|--------|--------0----------|--------------------------|--------

e|-3h4h2h3h5-2-|-3h3h3-----------|-0-------0-----9-|-7----------
B|-------------|-------2h2h2-3---|---2-2-2---2-2---|--10h9h7----
G|-------------|---------------1-|-----------------|--------9-7-
D|-------------|-------2-----0-2-|-----------------|-0----------
A|-2-------1-0-|-2-------------2-|-0---------------|------------
E|-------------|---------------0-|-----4---2---0---|--------0---

e|-----0-------|0-------0-----9-|-7-----------2---|-5-2-2-2-7-4-
B|-------------|--2-2-2---2-2---|--10h9h7---------|-------------
G|-6-7---------|----------------|--------9-10---2-|-------------
D|-------------|----------------|-0-------------4-|-----4-------
A|-------------|0---------------|---------------4-|-------------
E|-5-4-2h0h2h4h|----4---2---0---|--------0-9--2-2-|-2-------0---

e|-4-4-7-4-7-4-9----9----|-0-------0-----9-|-7--------------0---
B|---------------10---10-|---2-2-2---2-2---|--10h9h7------------
G|-----------------------|-----------------|--------9-7-6-7-----
D|-6-------6-------------|-----------------|-0------------------
A|-------------0----7----|-0---------------|--------------------
E|-----0-----------------|-----4---2---0---|--------0---5-4-2h0h

e|----|0-------0-----9-|-7-----------9h5|-------5-5-----5-5-|
B|----|--2-2-2---2-2---|--10h9h7-9h10---|-------2-2-----2-2-|
G|----|----------------|--------9-------|-------------------|
D|----|----------------|-0--------------|-------------------|
A|----|0---------------|-----------0---0|-----0-------0-----|
E|2h4h|----4---2---0---|--------0-------|0/2/4------0-------|

e|-----5-5---5---5-5-|--------5-5-----5-5-|-----5---5---5-5-|
B|-----2-2---2---2-2-|--------2-2-----2-2-|-----2---2---2-2-|
G|-------------------|--------------------|-----------------|
D|-------------------|--------------------|-----------------|
A|---0---------0-----|------0-------0-----|---0-------0-----|
E|-0-------0---------|-0/2/4------0-------|-0-----0---------|


ESTÁ IGUAL DE PRINCIPIO A FIN!!!!
Suggest correction
Give kudos to tab author, rate the tab!
1 2 3 4 5
comments
print report bad tab
guest
You may want to rate the tab now too:
select rating
Wanna post a correction for this tab? Suggest correction