Oops, an error
Loading. Please wait.

Elfen Lied - Lilium Tab

version 2
version 2

Whole song

205 views 3 this week
no commentswrite comment
1 2 3 4 5
3 more votes to show rating
add to favorites
launch autoscroll
font size
0
reset
how to read this tab
guitar tuner
Autoscroll
slow
fast
+/-
esc
set tempo
stop
Help us to improve Ultimate-Guitar.com Take our survey!
×
aca les dejo un vercion mas simple de lilium el opening de elfen lied
esta vercion q les traigo es muy conocida, eto , yo la e sub-dividido
en 5 partes pero creo q me falta una q es la q esta entre la parte 4 y 5
    bueno yo la e divido xq creo q se aprende mas facilmente solo tienen
q seguir el orden despues.

Part 1:
E---9--------------9------------------
B-7---9--10-10---7---9--10-12-10-7----
G-------------------------------------

Part 2:
E------------------------------------------
B-9--------7---------------9-10-12-10--10-9
G---9-7-9-----7-6-7-9-11-------------------

Part 3:
E---------------------7-------------------
B-9---------7-----------10-9--------------
G---9-7-9------7-6-7---------11-10-8-10-11

Part 4:
E----7-9-10--------10-9-12-------10-9--
B-10-------10-9--------------10--------
G--------------------------------------

Part 5:
E-------------------------
B-12-10-9-7-10-10--12-9---
G-------------------------

orden:
1-2-1-3-4-5-1-3

al aprenderce parte por parte sigan el orden y ahi esta la parte del
opening unicamente no la cancion entera, no la e qrido subir xq sino
se van a confundir mucho
bueno chao, ojala les sirva
Suggest correction
Give kudos to tab author, rate the tab!
1 2 3 4 5
comments
print report bad tab
guest
You may want to rate the tab now too:
select rating
Wanna post a correction for this tab? Suggest correction