Oops, an error
Loading. Please wait.

Emperatriz, Mirtha Legrand Tab

287 views 1 this week
no commentswrite comment
1 2 3 4 5
3 more votes to show rating
add to favorites
×
Save as Personal and add changes to this tab that will be seen only by you. Learn more ›
×
You can save this tab as Personal to edit and correct it or add notes. All changes will be seen only by you. Learn more »
save as personal
new!
launch autoscroll
font size
0
reset
how to read this tab
guitar tuner
Autoscroll
slow
fast
+/-
esc
set tempo
stop
e--12--12--13--15--15--13--12------12------------------
B------------------------------15------15--13---13--15-
G-------------------------------------------------------
D-------------------------------------------------------
A-------------------------------------------------------
E-------------------------------------------------------


e--12--13--12------12--------------17--15------12--13--12-
B--------------15------13--15--------------15-------------
G------------------------------12-------------------------
D---------------------------------------------------------
A---------------------------------------------------------
E---------------------------------------------------------


e------------------------12--13--12------12------13/15---
B--12--15--13---13---15--------------15------13----------
G--------------------------------------------------------


e--12--12--13--15--15--13--12------12-----------------
B------------------------------15------15--13---13--15
G-----------------------------------------------------


e--12--13--12------12---------------17--15------12--13--12
B--------------15------13--15---------------15------------
G------------------------------12-------------------------


e-------------------13--12----------------------
B--12--15--13---13----------15--13--15--13-13---
G-----------------------------------------------------


e--------------------------------------------------------------------------
B--------------------------------------------------------------------------
G------------------12------------------------------------12------14--12----
D--12--15--14--12-------14--12-------12--15--14--12--12------15------------
A-------------------------------15-----------------------------------------


Version Ukelele

A--5--5--6--8--8--6--5-----5---------------5--6--5-----5------------
E-----------------------8-----8--6---6--8-----------8-----6--8------
C---------------------------------------------------------------5---
G-------------------------------------------------------------------


A--8/10--8-----5--6--5------------------5--6--5-----5-----6/8---
E-----------8-----------5--8--6---6--8-----------8-----6--------
C---------------------------------------------------------------
G---------------------------------------------------------------


A------------------------------------------------------
E--------------1---------------------------1-----3--1--
C--0--3--2--0-----2--0--0---0--3--2--0--0-----3--------
G------------------------------------------------------


Video en youtube:

Suggest correction
Give kudos to tab author, rate the tab!
1 2 3 4 5
comments
print report bad tab
guest
Wanna post a correction for this tab? Suggest correction