Oops, an error
Loading. Please wait.

Festival De Los Robots Tab

46 views 1 this week
no commentswrite comment
1 2 3 4 5
3 more votes to show rating
add to favorites
launch autoscroll
font size
0
reset
how to read this tab
guitar tuner
Autoscroll
slow
fast
+/-
esc
set tempo
stop
Help us to improve Ultimate-Guitar.com Take our survey!
×
Este tema es la raja y super papa de sacar solo escuchen
bien el tema y asegurar los tiempos

Intro                      
E.-------------------------------------------|
B.-------------------------------------------|
G.-------------------------------------------|
D.----------------------7-6-4-4-6-6-6--------|x2
A.----------------------7-7-5-5-7-7-7--------|
E.--5-3-0-5-3-0-5-3-0---0-0-0-0-0-0-0--------|

E.-------------------------------------|
B.-------------------------------------|
G.--7-6-4-4-6-6-6----------------------|
D.--7-7-5-5-7-7-7----------------------|x2
A.--0-0-0-0-0-0-0----------------------|
E.-------------------------------------|    

A
Robot, eres formidable
                          E 
Robot, siempre luchas por amor

*punteo
E.-----------------|----------------|
B.--2-0-----0-0-0--|----------------|
G.------2-2--------|----------------|
D.-----------------|-7-6-4-4-6-6-6--|x2
A.-----------------|----------------|
E.-----------------|----------------|    

A
Luchando por el universo
                           E 
Tienes la velocidad de la luz

*punteo
E.-----------------|----------------|
B.--2-0-----0-0-0--|----------------|
G.------2-2--------|----------------|
D.-----------------|-7-6-4-4-6-6-6--|x2
A.-----------------|----------------|
E.-----------------|----------------|
         D                      A                     E
Cuando enfrentas el mal siempre cambias tu cuerpo a metal
         D               A                 B
Tienes armas secretas, gigante no te vencerán
A
Con el movimiento de tus puños
                             E
Te conviertes en un gigante robot.

*-Acordes usados con cejillo 
    A  E D B
E.--7--7-5-7-----|
B.--7--9-7-7-----|
G.--6--9-7-8-----|
D.--7--9-7-9-----|
A.--7--7-5-9-----|
E.--5--7-5-7-----|

Saludos a todos los que me conoceis,y vosotros si quereis 
mas tabs de  monos escribirme a mi mail nos vemos....

El Vengador.......
Suggest correction
Give kudos to tab author, rate the tab!
1 2 3 4 5
comments
print report bad tab
guest
You may want to rate the tab now too:
select rating
Wanna post a correction for this tab? Suggest correction