Oops, an error
Loading. Please wait.

Final - Evangelion Tab

91 views 3 this week
no commentswrite comment
1 2 3 4 5
3 more votes to show rating
add to favorites
launch autoscroll
font size
0
reset
how to read this tab
guitar tuner
×
Best way to learn
"Final - Evangelion"
Autoscroll
slow
fast
+/-
esc
set tempo
stop
E||--8------7--5--3----1--|--------5--5--8----7--|--------5--3--1----0--|
B||-----------------------|----------------------|----------------------|
G||-----------------------|----------------------|----------------------|
D||-----------------------|----------------------|----------------------|


------------------|--5------3--1--0-------|--------1--1--5----4--|
------------------|--------------------3--|----------------------|
------------------|-----------------------|----------------------|
------------------|-----------------------|----------------------|


--------1--0----------|-------------------|-------5--5----------|
--------------3----1--|--------------3----|--3------------------|
----------------------|-------------------|---------------------|
----------------------|-------------------|---------------------|


----------8----7----|-------------------|-------------------|
--------------------|--8----------------|-------------------|
--------------------|-------------------|--------------7----|
--------------------|-------------------|-------------------|


---------------------|----------5----3----|--1-------0----------|
-------6--6----------|--------------------|---------------------|
--7------------------|--------------------|---------------------|
---------------------|--------------------|---------------------|


------------------|--8------7--5--3----1--|--------5--5--8----7--|
------------------|-----------------------|----------------------|
------------------|-----------------------|----------------------|
------------------|-----------------------|----------------------|


--------5--3--1----0--|------------------|--5------3--1--0-------|
----------------------|------------------|--------------------3--|
----------------------|------------------|-----------------------|
----------------------|------------------|-----------------------|


--------1--1--5----4--|------1----0----------|-------------------|
----------------------|--------------3----1--|--------------3----|
----------------------|----------------------|-------------------|
----------------------|----------------------|-------------------|


-------5--5----------|----------8----7----|-------------------|
--3------------------|--------------------|--8----------------|
---------------------|--------------------|-------------------|
---------------------|--------------------|-------------------|


--------------------|------------------------|---------------------|
--------------8--9--|--10--------------------|---------------------|
--------------------|------------------------|----------------7----|
--------------------|------10--10------------|----------10---------|


--------------------||
--------------------||
--5-----------------||
--------------------||
Suggest correction
Give kudos to tab author, rate the tab!
1 2 3 4 5
comments
print report bad tab
guest
You may want to rate the tab now too:
select rating
Wanna post a correction for this tab? Suggest correction