Oops, an error
Loading. Please wait.

Frecuencia 04 - Amor Mío Tab

15 views 1 this week
no commentswrite comment
1 2 3 4 5
3 more votes to show rating
add to favorites
launch autoscroll
font size
0
reset
how to read this tab
guitar tuner
Autoscroll
slow
fast
+/-
esc
set tempo
stop
Help us to improve Ultimate-Guitar.com Take our survey!
×
Esta el la introduccion del tema...(prometo sacar el punteo completo y se los mando)

                                                   Esta parte no esta exacta pero igual queda bien.
                                                   ustedes traten de corregirla.
                                                --------------------------------------------------
        [ch]C                         [ch]G/SI         LAm7[/ch]                          SOL/SI[/ch]
1-------------------------------------------------------------------------------------------------
2-------------------------------------0-------------------- 1-------------------------0------------
3------------------0--0---------------0----------------0-------0-----0------------0-----0--------0
4----------0-h-2----------------------0-------------2-------------2------------0------------0-----
5---3--3---------------------2--2---------------0---------------------------2---------------------
6-------------------------------------------------------------------------------------------------


       [ch]C                            [ch]G/SI           LAm7[/ch]                      SOL/SI[/ch]
1-------------------------------------------------------------------------------------------------
2-------------------------------------0--------------------1-------------------------0------------
3------------------0--0---------------0----------------0-------0-----0------------0-----0--------0
4----------0-h-2----------------------0-------------2-------------2------------0------------0-----
5---3--3---------------------2--2---------------0---------------------------2---------------------
6-------------------------------------------------------------------------------------------------


[ch]C[/ch]           Sol\si
Es inútil, ya lo sé
[ch]Am7[/ch]             Sol\si
No soy solo lo que ves
[ch]F                     LAm7[/ch]
No me atrevo a decir nada
[ch]Dm7               RE[/ch]
Me confunde tu mirada

[ch]C[/ch]              Sol\si
Soy así y así muero
[ch]Am[/ch]             [ch]C#[/ch]
Si no grito que te quiero
[ch]Dm               REmaj7[/ch]
Cuantos cielos te daría
[ch]Dm7               SOL[/ch]
Sé que es una fantasía

[ch]Am7[/ch]             [ch]Em[/ch]
Amor mío, si pudiera
[ch]F[/ch]                 [ch]C[/ch]    Sol\si
Si pudieras descubrir
[ch]Am7[/ch]                        [ch]D7[/ch]
Que te llevo aquí en mis sueños
[ch]Dm7                   SOL[/ch]
Que mi mundo es para ti

[ch]Am7[/ch]             [ch]Em[/ch]
Amor mío si pudieras
[ch]F[/ch]                 [ch]C[/ch]    Sol\si
Si pudieras comprender
[ch]Am7[/ch]                        [ch]D7[/ch]
Para mí eres diferente
[ch]Dm7                   SOL[/ch]
Yo una mas entre la gente

[ch]C[/ch]                 Sol\si
Puede ser que algún día
[ch]Am7[/ch]                Sol\si
Si estás cerca todavía
[ch]Am7[/ch]                  [ch]D7[/ch]
Me desnudo en sufrimiento
[ch]Dm7                  SOL[/ch]
Puedes ver lo que yo siento

[ch]C[/ch]              Sol\si
Soy así y así muero
[ch]Am[/ch]             [ch]C#[/ch]
Si no grito que te quiero
[ch]Dm               REmaj7[/ch]
Cuantos cielos te daría
[ch]Dm7               SOL[/ch]
Sé que es una fantasía

[ch]Am7[/ch]             [ch]Em[/ch]
Amor mío, si pudiera
[ch]F[/ch]                 [ch]C[/ch]    Sol\si
Si pudieras descubrir
[ch]Am7[/ch]                        [ch]D7[/ch]
Que te llevo aquí en mis sueños
[ch]Dm7                   SOL[/ch]
Que mi mundo es para ti

[ch]Am7[/ch]             [ch]Em[/ch]
Amor mío si pudieras
[ch]F[/ch]                 [ch]C[/ch]    Sol\si
Si pudieras comprender
[ch]Am7[/ch]                        [ch]D7[/ch]
Para mí eres diferente
[ch]Dm7                   SOL[/ch]
Yo una mas entre la gente

Amor miooo

[ch]Am7[/ch]             [ch]Em[/ch]
Amor mío si pudieras
[ch]F[/ch]                 [ch]C[/ch]    Sol\si
Si pudieras comprender
[ch]Am7[/ch]                        [ch]D7[/ch]
Para mí eres diferente
[ch]Dm7                   SOL[/ch]
Yo una mas entre la gente
Para ti
vuelve la intro..


espero que la puedadn sacar bien..
saludos para todos los carmenses(jujuy)
y para los buitres

AGUANTE LA DORRE!!!!!
JORGE D. ZARATE EL CARMEN JUJUY
Suggest correction
Give kudos to tab author, rate the tab!
1 2 3 4 5
comments
print report bad tab
guest
You may want to rate the tab now too:
select rating
Wanna post a correction for this tab? Suggest correction