Oops, an error
Loading. Please wait.

Inspector Gadget Tab

187 views 6 this week
no commentswrite comment
1 2 3 4 5
2 more votes to show rating
add to favorites
launch autoscroll
font size
0
reset
how to read this tab
guitar tuner
×
Best way to learn
"Inspector Gadget"
Autoscroll
slow
fast
+/-
esc
set tempo
stop
~-vibrato
b-bend
r-release
(x)-bend to or from

Opening bit...

|-------------------|---------------|
|-------------------|---------------|
|-------------------|---------------|
|-------------------|----------7-6~-|
|------5-7---6---5--|------5-7------|
|5-7-8-----8---8---8|5-7-8----------|


|-------------------|------------------|
|-------------------|------------------|
|-------------------|------------9-14--|
|-------------------|------------9-14--|
|------5-7---6---5--|------------7-12--|
|5-7-8-----8---8---8|5-4-3-2-1~--------|


'Go Gadget go' bit....

|------------x12-12|----------------------|
|------------x12-12|----------------------|
|12~-9-10-12-------|12-12-11-9-7-9-9-7-5-4|
|------------------|----------------------|
|------------------|----------------------|
|------------------|----------------------|

|------------x12-12|----------------------|
|------------x12-12|----------------------|
|12~-9-10-12-------|12-12-11-9-7-9-9-7-5-4|
|------------------|-------------7-7-7-5-4|
|------------------|-------------7-7-5-3-2|
|------------------|----------------------|

|-------------------|---------------|
|-------------------|---------------|
|-------------------|---------------|
|-------------------|----------7-6~-|
|------5-7---6---5--|------5-7------|
|5-7-8-----8---8---8|5-7-8----------|


|-------------------|---------------------------------|
|-------------------|-------------------------12b(15)r|
|-------------------|-----------------3~2~------------|
|-------------------|------------3~2~-----------------|
|------5-7---6---5--|------3~-2~----------------------|
|5-7-8-----8---8---8|3~-2~----------------------------|

|------------------|
|------------------|
|------------9-14--|
|------------9-14--|
|------------7-12--|
|5-4-3-2-1~--------|
Suggest correction
Give kudos to tab author, rate the tab!
1 2 3 4 5
comments
print report bad tab
guest
You may want to rate the tab now too:
select rating
Wanna post a correction for this tab? Suggest correction