Oops, an error
Loading. Please wait.

Intro - Evangelion Tab

182 views 1 this week
no commentswrite comment
1 2 3 4 5
2 more votes to show rating
add to favorites
×
Save as Personal and add changes to this tab that will be seen only by you. Learn more ›
×
You can save this tab as Personal to edit and correct it or add notes. All changes will be seen only by you. Learn more »
save as personal
new!
launch autoscroll
font size
0
reset
how to read this tab
guitar tuner
Autoscroll
slow
fast
+/-
esc
set tempo
stop
E||-------0----2---0---2--|--2--2--7--5--4-2--4-----|--4----7----9-------0--|
B||--2--------------------|-------------------------|----------------7------|
G||-----------------------|-------------------------|-----------------------|


--7--7--4--7--7---9-----|------------------|------0------------0--|
------------------------|------------------|---------0-0----------|
------------------------|------------------|----------------------|


--0---2----------------|--4---5---4--2---0---2--|--4---5---4-------------|
----------0--0------0--|------------------------|-------------2------2-4-|
-----------------------|------------------------|------------------------|


--0---0-------------0-2-|--5---4---2--0------4--|--4---2---1--2---------|
----------4--4----------|-----------------------|------------------2----|
------------------------|-----------------------|-----------------------|


---------------------|------0-----------0--|--0---2----------------|
--2------4--4--------|----------0----------|----------0--0------0--|
---------------------|---------------------|-----------------------|


--4---5---4--2---0---2--|--4---5---4-------------|--0---0-------------0-2-|
------------------------|-------------2------2-4-|----------4--4----------|
------------------------|------------------------|------------------------|


--5---4---2--0------4--|--4---2---1--2---4---5--|--4----------------|
-----------------------|------------------------|-------------------|
-----------------------|------------------------|-------------------|


--0----0-------0----0-------|--2----2----0---------------|
------------4------------4--|---------------4----2----4--|
----------------------------|----------------------------|


--0----0-------2------------|-------------------|--0----0-------0----0-------|
------------4-------4----2--|--0----------------|------------4--2----2----4--|
----------------------------|-------------------|-------------------------4--|


--2----2----0-------0----2--|--4----5----4--2----0----2--|--4----------------|
--4----4----2--4----2----4--|--4----4----4--4----2----4--|-------------------|
---------------4------------|----------------------------|--5----------------|


-----------------------|--------7--5--4-2--4-----|--4----7----9-------0--|
-------5----7---5---7--|--7--7-------------------|----------------7------|
--6--------------------|-------------------------|-----------------------|


--------------2-0--0-----|-------0----2---0---2--|--2--2--7--5--4-2--4-----|
--4--4--2--4-------------|--2--------------------|-------------------------|
-------------------------|-----------------------|-------------------------|


--4----7----9-------0--|--7--7--4--7--7---9-----|-----------------------|
----------------7------|------------------------|-------5----7---5---7--|
-----------------------|------------------------|--6--------------------|


--------7--5--4-2--4-----|--4----7----9-------0--|--7--7--4--7--7---9-----||
--7--7-------------------|----------------7------|------------------------||
-------------------------|-----------------------|------------------------||
Suggest correction
Give kudos to tab author, rate the tab!
1 2 3 4 5
comments
print report bad tab
guest
Wanna post a correction for this tab? Suggest correction