Oops, an error
Loading. Please wait.

Intro - Sakura Cc Tab

25 views 1 this week
no commentswrite comment
1 2 3 4 5
3 more votes to show rating
add to favorites
launch autoscroll
font size
0
reset
how to read this tab
guitar tuner
Autoscroll
slow
fast
+/-
esc
set tempo
stop
Help us to improve Ultimate-Guitar.com Take our survey!
×
E ||--------------------|--0-------------------|--0-------------------|
B ||--------------1--3--|---------1------1--3--|---------1------1--3--|
G ||--------------------|----------------------|----------------------|


 --0-------------------|-----------------------|--0-------------------|
 ---------1------1--3--|--4----4------------3--|---------1------1--3--|
 ----------------------|----------5------5-----|----------------------|


 --0------------------|--0--------------------|----------0------8-----|
 ---------1------1----|---------1----1--1--1--|--3----1---------------|
 ---------------------|-----------------------|-----------------------|


 --5----8-----5----8-----|--5----8-----5-----8-----|-----------------------|
 ------------------------|-------------------------|--8------8-------------|
 ------------------------|-------------------------|--------------9--7--9--|


 ------------------------|--------------------------|--------------5--5--------|
 --9---------------------|--------------3-----------|--3-----------------5--5--|
 --------9-----7----9----|--7--5--5--------5--5-----|-----5--5-----------------|


 --3----------------|--------------3--5--|--7--7--7--7--7--7--7--7--|
 -------------------|--------------------|--------------------------|
 -------------------|--------------------|--------------------------|


 --10--8--------------|--7-----6----6--5--5--4-----|--3-3-3-3-1--1-------3--5--|
 ---------------------|----------------------------|----------------3----------|
 ---------------------|----------------------------|---------------------------|


 --7--7--7--7--7--7--7--7--|--10--8--------------|
 --------------------------|---------------------|
 --------------------------|---------------------|


 --7--7--7--7--5--5--4--4--4--4--0--0-0-|--------------------5--8--|
 ---------------------------------------|--3--3--1--1--3--3--------|
 ---------------------------------------|--------------------------|


 ----------------8--|----8----8----8----8--||
 -------------------|----------------------||
 -------------------|----------------------||
Suggest correction
Give kudos to tab author, rate the tab!
1 2 3 4 5
comments
print report bad tab
guest
You may want to rate the tab now too:
select rating
Wanna post a correction for this tab? Suggest correction