Oops, an error
Loading. Please wait.

Kenichi - Ending Tab

32 views 3 this week
no commentswrite comment
1 2 3 4 5
3 more votes to show rating
add to favorites
×
Save as Personal and add changes to this tab that will be seen only by you. Learn more ›
×
You can save this tab as Personal to edit and correct it or add notes. All changes will be seen only by you. Learn more »
save as personal
new!
launch autoscroll
font size
0
reset
how to read this tab
guitar tuner
Autoscroll
slow
fast
+/-
esc
set tempo
stop
Un saludo a los que visitan 
en esta ocasión transcribo la canción del
ending de Kenichi. Existe una versión anterior
pero según mi oído esta suena un poco
mas correcta, juzguenla ustedes y mientras tanto
espero les sirva, dudas a mi correo
mmardeccopas@

No me se el nombre de las notas con asterisco
pero se las pongo a continuación.

G*
      1      2
E --|-----|--2--|----------
A --|--1--|-----|----------
D --|-----|-----|---------
G --|-----|-----|---------
B --|-----|--3--|----------
e --|-----|--4--|----------

E*
      1      2
E --|-----|-----|----------
A --|--2--|-----|----------
D --|--1--|-----|---------
G --|-----|-----|---------
B --|-----|--3--|----------
e --|-----|--4--|----------

C*
      1      2
E --|-----|-----|----------
A --|-----|--2--|----------
D --|--1--|-----|---------
G --|-----|-----|---------
B --|-----|--3--|----------
e --|-----|--4--|----------

Em*

      1      2
E --|-----|----|----------
A --|--2--|-----|----------
D --|--3--|-----|---------
G --|-----|-----|---------
B --|-----|--4--|----------
e --|-----|-----|----------


Am7
      1         2
E --|-----|-----|----------
A --|-----|-----|----------
D --|-----|--2--|---------
G --|-----|-----|---------
B --|--1--|-----|----------
e --|-----|-----|----------


 --------------- Riff ----------------------------------
Al principio del primer párrafo en lugar del rasgueo se le puede
poner este pequeño riff


E --|--------3---------3--------------------------------
A --|-------------------------------2-------------------
D --|---------------------------------------------------
G --|---------3---3-----3----3--------3----3------------
B --|----------3---3-----3-----3-------3----3-----------
e --|-----------3---3-----3------3------3----3----------

Es como un sueño         al fin la tengo

E --|-----------------3--------------------------------
A --|-----2-----------------3--------------------------
D --|-------------------------------------0------------
G --|---------3---3------------3-------3----2----2-----
B --|----------3----3-------------3---3--3---3--3-3----
e --|-----------3------3------------3---------2--------

                ella me ha   dado un gran va-lor

E --|-------------------------------------------------
A --|----2--------------------------------------------
D --|----2--------------------2-----------------------
G --|----0------------0-------2-----------------------
B --|----0-----------3--------1-----------------------
e --|----0----------0---------------------------------

me trata bien                 había ...


             G*             E*
Es como un sueño al fin la tengo
            C*             D
ella me ha dado un gran valor

           Em           Em*
me trata bien

Am        Bm
Había perdido la fuerza
Em         A7
y llegaste tu
       Am7        Bm
con tu luz tu me das
       Dm                D
la alegría que habita en mi


G*                       Bm
Mientras me brindes tu amor
Em                     C     D
y la bondad que en tu pecho brilla
G*                  Bm
no habrá tristeza jamas
             Em       D
siempre buscaré lo mejor


G*                Bm
Eres del cielo la luz
Em                 C     D
contigo quiero seguir soñando
G*                  Bm
eres la flor que nacio
            Em
no te olvidare
         A7
con tu amor
Am7              D
me has dado el valor
             G*
por ti no caeré
Suggest correction
Give kudos to tab author, rate the tab!
1 2 3 4 5
comments
print report bad tab
guest
Wanna post a correction for this tab? Suggest correction