Oops, an error
Loading. Please wait.

La Pantera Rosa Tab

version 1
version 1

Whole song

297 views 1 this week
no commentswrite comment
1 2 3 4 5
2 more votes to show rating
add to favorites
launch autoscroll
font size
0
reset
how to read this tab
guitar tuner
×
Best way to learn
"La Pantera Rosa"
Autoscroll
slow
fast
+/-
esc
set tempo
stop
1.--------------------------------------
2.--------------------------------------
3.--------------------------------------
4.----0-1-2-----------------------------
5.--4-------2---------------------------
6.------------0-------------------------(x3)

1--------------------------------------
2--------------------------------------
3---------------------------5-4--------
4----0-1-2----4-5---1-2-4-5-----2-5----
5--4-----------------------------------
6-----------0-----0--------------------

1--------------------------------------
2--------------------------------------
3-4-3-2-0------------------------------
4---------0-2-2------------------------
5--------------------------------------
6--------------------------------------

Hasta ahi me la se Saludos :D.
Suggest correction
Give kudos to tab author, rate the tab!
1 2 3 4 5
comments
print report bad tab
guest
You may want to rate the tab now too:
select rating
Wanna post a correction for this tab? Suggest correction