Oops, an error
Loading. Please wait.

La Pantera Rosa Tab

version 3
version 3

Whole song

87 views 1 this week
no commentswrite comment
1 2 3 4 5
3 more votes to show rating
add to favorites
launch autoscroll
font size
0
reset
how to read this tab
guitar tuner
×
Best way to learn
"La Pantera Rosa"
Autoscroll
slow
fast
+/-
esc
set tempo
stop
E)-0--1--2--3-------------------------
A)-----------------------0--1---------
D)------------------------------------
G)-------------3----------------3-----
B)---------------3----------------3---
E)-----------------3----------------3-


E)--0--3-------------1-3---------2-1-0-2-2
A)-------0--1---5-4------4-3--0-----------
D)----------------------------------------
G)----------------------------------------
B)----------------------------------------
E)----------------------------------------

E)----------------------------------------------------
A)----------------------------------------------------
D)----------------------------------------------3--5-5
G)------------2--0----3/5---3/5---3/5----3-3-0--------
B)------3--1------------------------------------------
E)-3--1-----------------------------------------------

G)----3-
B)-3---3-
E)------3-
Suggest correction
Give kudos to tab author, rate the tab!
1 2 3 4 5
comments
print report bad tab
guest
You may want to rate the tab now too:
select rating
Wanna post a correction for this tab? Suggest correction