Oops, an error
Loading. Please wait.

Los Expedientes Secretos X Tab

172 views 1 this week
no commentswrite comment
1 2 3 4 5
3 more votes to show rating
add to favorites
launch autoscroll
font size
0
reset
how to read this tab
guitar tuner
×
Best way to learn
"Los Expedientes Secretos X"
Autoscroll
slow
fast
+/-
esc
set tempo
stop
Una serie de televisión estadounidense de ciencia ficción
y misterio, emitida por la Cadena FOX, y creada por Chris Carter.

e|--------------------------------
B|--------------------------------
G|--------------------------------
D|---2-0-2-5-2--------2-0-2-7-2---
A|-0----------------0-------------
E|--------------------------------

e|--------------------------------
B|--------------------------------
G|-5-4-2-0-2--------5-4-2-0---2---
D|-----------2--------------2-----
A|--------------------------------
E|--------------------------------

O MÁS AGUDO ASÍ:

e|---0----0--3-0--------0----0--5-0---
B|------3------------------3----------
G|-2------------------2---------------
D|------------------------------------
A|------------------------------------
E|------------------------------------

e|-8-7-5-3-5-0------8-7-5-3-0-5---
B|--------------------------------
G|--------------------------------
D|--------------------------------
A|--------------------------------
E|--------------------------------

MI CORREO: juanda0612@
Suggest correction
Give kudos to tab author, rate the tab!
1 2 3 4 5
comments
print report bad tab
guest
You may want to rate the tab now too:
select rating
Wanna post a correction for this tab? Suggest correction