Oops, an error
Loading. Please wait.

Los Locos Adams Tab

version 1
version 1

Whole song

90 views 3 this week
no commentswrite comment
1 2 3 4 5
3 more votes to show rating
add to favorites
launch autoscroll
font size
0
reset
how to read this tab
guitar tuner
×
Best way to learn
"Los Locos Adams"
Autoscroll
slow
fast
+/-
esc
set tempo
stop
X=TRONAR LOS DEDOS

e|-----------X-X-----------X-X---
B|------0-1--X-X----0-2-3--X-X---
G|--0-2------X-X--2--------X-X---
D|-----------X-X-----------X-X---
A|-----------X-X-----------X-X---
E|-----------X-X-----------X-X---

e|------------------------------X-X---
B|----0-2-3----0-2-3------0-1---X-X---
G|--2--------2--------0-2-------X-X---
D|------------------------------X-X---
A|------------------------------X-X---
E|------------------------------X-X---

e|------0-------------------------------
B|----1---1----3----0-0-3-0-----1-------
G|--0-------2---------------0-----------
D|------------3---------------2---------
A|--------------------------------------
E|--------------------------------------

e|------0----------------------------
B|----1---1----3-----0-0------0-1----
G|--0-------2-------------0-2--------
D|------------3----------------------
A|-----------------------------------
E|-----------------------------------

REPITANLA CUANTAS VECES QUIERAN...
Suggest correction
Give kudos to tab author, rate the tab!
1 2 3 4 5
comments
print report bad tab
guest
You may want to rate the tab now too:
select rating
Wanna post a correction for this tab? Suggest correction