Oops, an error
Loading. Please wait.

Los Lunis - Buenas Noches, Hasta Mañana Tab

115 views 1 this week
no commentswrite comment
1 2 3 4 5
3 more votes to show rating
add to favorites
launch autoscroll
font size
0
reset
how to read this tab
guitar tuner
×
Best way to learn
"Los Lunis - Buenas Noches, Hasta Mañana"
Autoscroll
slow
fast
+/-
esc
set tempo
stop
Acordes

    A        F#    B7    E
e|--0--|--2--|--2--|--0--|
B|--2--|--4--|--0--|--0--|
G|--2--|--4--|--2--|--1--|
D|--2--|--3--|--1--|--2--|
A|--0--|--2--|--2--|--2--|
E|-----|--2--|-----|--0--|

PM = Palm Mute


Intro

e|---9-----8-----7---5---0--PM--0---0-0--|
B|-------------------5---2--PM--0---0-0--|
G|-9---9-8---8-7---7-6---0--PM--2---2-2--|
D|-----------------------2--PM--0---0-0--|
A|-----------------------0--PM--2---2-2--|
E|---------------------------------------|


   A               F#
Estoy muy cansada, hoy no he parado
B7             E
de tanto jugar estoy agotada.


  A              F#
Mañana estaremos llenos de energia
B7                      E
porque por la noche cargamos nuestras pilas.


A             F#
Buenas noches hasta mañana
   B7                 E
los lunis y los niños nos vamos ala cama
    A                   F#
nos vamos ala cama, nos vamos ala cama
    B7              E
nos vamos ala cama, hasta mañana.


A             F#
Buenas noches hasta mañana
   B7                 E
los lunis y los niños nos vamos ala cama


Final

e|-9-----8-----7-----3---|
B|-------------------2---|
G|-9-----8-----7-----0---|
D|-------------------2---|
A|-------------------0---|
E|-----------------------|

Hasta Mañana.
Suggest correction
Give kudos to tab author, rate the tab!
1 2 3 4 5
comments
print report bad tab
guest
You may want to rate the tab now too:
select rating
Wanna post a correction for this tab? Suggest correction