Oops, an error
Loading. Please wait.

Los Picapiedra Bass Tab

39 views 1 this week
no commentswrite comment
1 2 3 4 5
3 more votes to show rating
add to favorites
launch autoscroll
font size
0
reset
guitar tuner
×
Best way to learn
"Los Picapiedra"
Autoscroll
slow
fast
+/-
esc
set tempo
stop
Este es el tab para bajo de los picapiedra

--------1----------------------
--1--------3--1----------------
-------------------------------
-----3-----------3-------------

-------------------------------
--1--------------1-------------
-----3--2--2--3--------0--2----
--------------------3----------


y eso es todo !
Suggest correction
Give kudos to tab author, rate the tab!
1 2 3 4 5
comments
print report bad tab
guest
You may want to rate the tab now too:
select rating
Wanna post a correction for this tab? Suggest correction