Oops, an error
Loading. Please wait.

The Simpsons Theme Tab

version 5
version 5
177 views 6 this week
no commentswrite comment
1 2 3 4 5
2 more votes to show rating
add to favorites
×
Save as Personal and add changes to this tab that will be seen only by you. Learn more ›
×
You can save this tab as Personal to edit and correct it or add notes. All changes will be seen only by you. Learn more »
save as personal
new!
launch autoscroll
font size
0
reset
how to read this tab
guitar tuner
Autoscroll
slow
fast
+/-
esc
set tempo
stop
esta parte de la cancion la saque un dia que veia los simpson..
asi que si tiene errores es porque la hice sin muchas ganas xD.

asi empieza:

e. ------------------------------------------------------------
B. ------------------------------------------------------------
G -------------2--0--------------------------------------------
D. -----2--4---------2-----------------------------------------
A. --3--------------------3--0---------------------------------
E. ------------------------------2--2--2--3--2--2--2--3--3-----

este es el final:

e. ------------------------------------------------------------
B. ------------------------------------------------------------
G -------------------------------------------------------------
D. ------------------------------------------------------------
A. ---------------------------------3--3--3--3--3-3-3----------
E. --2--2--2--3--2--2--2--3--3---------------------------------

Y este es el final de "gracie films" que sale ya que se acaba la
 cancion.

e ----------------------------------
B ----------------------------------
G ------------2--0------------------
D ---0/2--4---------4--2--0--0------
A ----------------------------------
E ----------------------------------
Suggest correction
Give kudos to tab author, rate the tab!
1 2 3 4 5
comments
print report bad tab
guest
Wanna post a correction for this tab? Suggest correction