Oops, an error
Loading. Please wait.

Los Simpsons Tab

version 3
version 3

Whole song

13 views 1 this week
no commentswrite comment
1 2 3 4 5
3 more votes to show rating
add to favorites
launch autoscroll
font size
0
reset
how to read this tab
guitar tuner
×
Best way to learn
"Los Simpsons"
Autoscroll
slow
fast
+/-
esc
set tempo
stop
Ps s mi primera transcripcion q subo ii pz spero
ke les guzte despues les pongo lo demaz ii pzz
la kanzion no es de taller para niñoz la puse
aka pk pzz no avia artista de los simpsonz ii pzz
taller para niñoz fue el primer artizta ke vi

                                     x2
---------------------------------------|----
-10-12-14-17-15-12-10-9-10-10-10-12-14-|-12-
---------------------------------------|----
---------------------------------------|----
---------------------------------------|----
---------------------------------------|----

---------------------------------------|
--------------------------9-10-9-10-12-|
----------8----8-11-10-11--------------|
-9-8-9-11---11-------------------------|
---------------------------------------|
---------------------------------------|

--------------------------------------------|
18-16-14----16-14-12---14-12-10---12-10-8---|
---------16----------14---------12--------10|
--------------------------------------------|
--------------------------------------------|
--------------------------------------------|
Suggest correction
Give kudos to tab author, rate the tab!
1 2 3 4 5
comments
print report bad tab
guest
You may want to rate the tab now too:
select rating
Wanna post a correction for this tab? Suggest correction