Oops, an error
Loading. Please wait.

Los Simpsons Tab

version 4
version 4

Whole song

49 views 1 this week
no commentswrite comment
1 2 3 4 5
3 more votes to show rating
add to favorites
launch autoscroll
font size
0
reset
how to read this tab
guitar tuner
×
Best way to learn
"Los Simpsons"
Autoscroll
slow
fast
+/-
esc
set tempo
stop
Hola soy pato
agreguenme
pato_0806@
patricirobertog@
pato_kpo@
****************************

E----------------------------------------------------
A----------------------------------------------------
D----------------------------4-4-4-------------------
g------------------------2---------0-----------------
b-1-------------------1------------------------------
e-----0---2--5-3-0-----------------------------------


E--------------------------------------------------------
A--------------------------------------------------------
D----------------------------4-4-4----4-4-4----------------
g------------------------2---------0--------0-------------
b-1-------------------1------------------------0---2-2-2-3
e-----0---2--5-3-0-----------------------------------------
Suggest correction
Give kudos to tab author, rate the tab!
1 2 3 4 5
comments
print report bad tab
guest
You may want to rate the tab now too:
select rating
Wanna post a correction for this tab? Suggest correction