Oops, an error
Loading. Please wait.

Mi Amor El Wachiman - Mi Estrella Tab

24 views 1 this week
no commentswrite comment
1 2 3 4 5
3 more votes to show rating
add to favorites
launch autoscroll
font size
0
reset
how to read this tab
guitar tuner
Autoscroll
slow
fast
+/-
esc
set tempo
stop
Help us to improve Ultimate-Guitar.com Take our survey!
×
este es primer post espero que les guste ...

INTRO....
el------3-5-7--5-7-5-7-10-3-8-7-5-3-2--l
Bl-3--------------------------------------------l
G-----------------------------------------------|
D-----------------------------------------------|
A-----------------------------------------------|
E-----------------------------------------------|

Coro : mi amor el wachiman

Que tú eres hoy mi estreeeellaaaa
e---------------3----1----3----3---------------|
B-3----3---3-----------------------------------|
G-----------------------------------------------|
D-----------------------------------------------|
A-----------------------------------------------|
E-----------------------------------------------|


Que nunca he sido taaaan feliiiz
e-------------------3--1--3--5---3-----------|
B-3----3-----3--------------------------------|
G----------------------------------------------|
D----------------------------------------------|
A----------------------------------------------|
E----------------------------------------------|


Que solo vivo por tiiii amor primerooo
e-3---3-3---3-3--3-3-------5--3--1--0--1---|
B--------------------------------------------------|
G--------------------------------------------------|
D--------------------------------------------------|
A--------------------------------------------------|
E--------------------------------------------------|


Que tu eres hoy mi estrellaaaa
ee---------------3----1----3----3---------------|
B-3----3---3-------------------------------------|
G--------------------------------------------------|
D--------------------------------------------------|
A--------------------------------------------------|
E--------------------------------------------------|


Que ya no puedo estar sin ti
e-------------------3--1--3--5---3-----------|
B-3----3-----3--------------------------------|
G-----------------------------------------------|
D-----------------------------------------------|
A-----------------------------------------------|
E-----------------------------------------------|


Nunca te vayas de miiiii amor primerooooo
e-3---3-3---3-3--3-3-------5--3--1--0--1---|
B--------------------------------------------------|
G--------------------------------------------------|
D--------------------------------------------------|
A--------------------------------------------------|
E--------------------------------------------------|

Ay amor   uuuuu
Ay amor    uuuuu


FIN......es facil.......de Miguel Arocutipa....ñ.ñ
Suggest correction
Give kudos to tab author, rate the tab!
1 2 3 4 5
comments
print report bad tab
guest
You may want to rate the tab now too:
select rating
Wanna post a correction for this tab? Suggest correction