Oops, an error
Loading. Please wait.

Milagros Y Sombras Del Perú - Te Extraño Corazón Tab

9 views 1 this week
no commentswrite comment
1 2 3 4 5
3 more votes to show rating
add to favorites
launch autoscroll
font size
0
reset
how to read this tab
guitar tuner
×
Best way to learn
"Milagros Y Sombras Del Perú - Te Extraño Corazón"
Autoscroll
slow
fast
+/-
esc
set tempo
stop
Hola amigos me llamo celestino y soy de Arequipa aquí les envió este
tema es muy bonito se los recomiendo, la transcripción esta súper;
para primera y segunda guitarra claro.

(¡): este signo lo puse para indicar que debes deslizar  la yema del
dedo al siguiente traste indicado el la tablatura el cual no se golpea
por ejm: ------¡-----------
         --2-2-2-5-5-5-5---el 5 q continua del 2 que tiene signo no
se golpea pero los demás si. El (*) indica que debes rasgar las
cuerdas de arriba hacia abajo muy rápido.

**********************************************************************

INTRO:

          Dm                 F              C            Dm
E|----------------------|-----------|-----------------|-------||
A|----------------------|-----¡-----|---------¡-------|-------||
D|-¡--------------------|-2-2-2-5-5-|-------2-2-3-3-2-|---0---||
G|-0-2-2-------2-0-2-2-0|-----------|-5-5-5-----------|-------||
B|-------3-3-3----------|-----------|-----------------|-------||
E|----------------------|-----------|-----------------|-------||BIS

        C             F             C           Dm       F
E|---------------|----------|----------------|-------|-------|
A|---------------|----------|----------------|-------|-------|
D|--¡------------|----------|--¡-------------|-------|-------|
G|-10-9-9-9-9¡---|----------|-10-9-9-9¡---10-|-7-7-7-|-9-10--|
B|-10--8-8-8-8-10|-10-13-13-|-10--8-8-8-10---|-------|-------|
E|---------------|----------|----------------|-------|-------|

        C             F               C             Dm
E|---------------|----------|--------------------|-------|
A|---------------|----------|--------------------|-------|
D|--¡------------|----------|--¡-----------------|-------|
G|-10-9-9-9-9¡---|----------|-10-9-9-9¡---10-7-7-|--7--7-|
B|-10--8-8-8-8-10|-10-13-13-|-10--8-8-8-10-------|-------|
E|---------------|----------|--------------------|-------|

     Dm-C-Dm              F                   C           F
D|--------------|-------------------|--------------*---|-----
G|---¡-------6--|-------------------|------------5-5---|-----
B|-3-5-6-3-3---3|-¡---¡-------------|-------6-3-3--5---|-¡---
E|--------------|-3-5-5-8-8-5-5-3-5-|-3-3-5--------3-3-|-3-5-

     C       Dm
D---------|-------||
G-----¡---|-------||
B-6-3-5-6-|---3---||
E---------|-------||BIS


    Dm-C-Dm                 F
Cuando volverás / mi vida cuando vendrás
          C
Buscando siempre estoy
    F        C      Dm
Tu cariño / y tu /  amor.

      Dm-C-Dm                 F
Te extraño corazón / no puedo vivir sin ti
         C
Pero cuando volverás
    F       C     Dm
A curar / este / dolor.


INTERMEDIO:

     Dm-C-Dm              F                   C           F
D|--------------|-------------------|--------------*---|-----
G|---¡-------6--|-------------------|------------5-5---|-----
B|-3-5-6-3-3---3|-¡---¡-------------|-------6-3-3--5---|-¡---
E|--------------|-3-5-5-8-8-5-5-3-5-|-3-3-5--------3-3-|-3-5-

     C         Dm
D|---------|-------|
G|-----¡---|-------|
B|-6-3-5-6-|---3---|
E|---------|-------|

     Dm-C-Dm              F                   C           F
D|--------------|-------------------|--------------*---|-----
G|---¡-------6--|-0-2-----2-2-0-2---|------------5-5---|-----
B|-3-5-6-3-3---3|-----1-1-----------|-------6-3-3--5---|-¡---
E|--------------|-------------------|-3-3-5--------3-3-|-3-5-

     C         Dm
D---------|-------|
G-----¡---|-------|
B-6-3-5-6-|---3---|
E---------|-------|


       Dm-C-Dm              F
Te extraño Corazón / no puedo vivir sin ti
          C
Esperando siempre estoy
      F          C      Dm
Que regreses / junto / a mi.

       Dm-C-Dm              F
Pronto volverás / se que pronto regresaras
            C
Que las horas sin tu amor
       F           C       Dm
Es mas fuerte / que el / dolor.


     Dm-C-Dm              F                   C           F
D|--------------|-------------------|--------------*---|-----
G|---¡-------6--|-0-2-----2-2-0-2---|------------5-5---|-----
B|-3-5-6-3-3---3|-----1-1-----------|-------6-3-3--5---|-¡---
E|--------------|-------------------|-3-3-5--------3-3-|-3-5-

     C         Dm
D|---------|-------|
G|-----¡---|-------|
B|-6-3-5-6-|---3---|
E|---------|-------|


     Dm-C-Dm              F                   C           F
D|--------------|-------------------|--------------*---|-----
G|---¡-------6--|-------------------|------------5-5---|-----
B|-3-5-6-3-3---3|-¡---¡-------------|-------6-3-3--5---|-¡---
E|--------------|-3-5-5-8-8-5-5-3-5-|-3-3-5--------3-3-|-3-5-

     C         Dm
D|---------|-------|
G|-----¡---|-------|
B|-6-3-5-6-|---3---|
E|---------|-------|

       Dm-C-Dm              F
Te extraño Corazon / no puedo vivir sin ti
          C
Esperando siempre estoy
      F          C      Dm
Que regreses / junto / a mi.

       Dm-C-Dm              F
Pronto volveras / se que pronto regresaras
            C
Que las horas sin tu amor
       F           C       Dm
Es mas fuerte / que el / dolor.


        C             F             C           Dm       F
E|---------------|----------|----------------|-------|-------|
A|---------------|----------|----------------|-------|-------|
D|--¡------------|----------|--¡-------------|-------|-------|
G|-10-9-9-9-9¡---|----------|-10-9-9-9¡---10-|-7-7-7-|-9-10--|
B|-10--8-8-8-8-10|-10-13-13-|-10--8-8-8-10---|-------|-------|
E|---------------|----------|----------------|-------|-------|


        C             F               C             Dm
E|---------------|----------|--------------------|-------|
A|---------------|----------|--------------------|-------|
D|--¡------------|----------|--¡-----------------|-------|
G|-10-9-9-9-9¡---|----------|-10-9-9-9¡---10-7-7-|--7--7-|
B|-10--8-8-8-8-10|-10-13-13-|-10--8-8-8-10-------|-------|
E|---------------|----------|--------------------|-------|

 FUGA:

       C               F
Si tu no vuelves / no llorare
     C           F
Encontrare / otro amor
       C                F
Por donde vayas / no encontraras
      C          F       Dm
Otro querer /  mejor / que yo.-----------(BIS)


       A#           F           C          Dm       F
E|------------|----------|-------------|--------|-------
A|------------|----------|-------------|--------|-------
D|------------|----------|-------------|--------|-¡-----
G|------------|----------|--9-------10-|-7-7-7--|-9-10--
B|----11-11---|--10-10---|-8-8-8-10----|--------|-------
E|-10------10-|-8------8-|-------------|--------|-------

       A#           F           C           Dm
E------------|----------|-------------|---------||
A------------|----------|-------------|---------||
D------------|----------|-------------|---------||
G------------|----------|--9-------10-|-7-7-7-7-||
B----11-11---|--10-10---|-8-8-8-10----|---------||
E-10------10-|-8------8-|-------------|---------||BIS


        C             F             C           Dm       F
E|---------------|----------|----------------|-------|-------|
A|---------------|----------|----------------|-------|-------|
D|--¡------------|----------|--¡-------------|-------|-------|
G|-10-9-9-9-9¡---|----------|-10-9-9-9¡---10-|-7-7-7-|-9-10--|
B|-10--8-8-8-8-10|-10-13-13-|-10--8-8-8-10---|-------|-------|
E|---------------|----------|----------------|-------|-------|

        C             F               C             Dm
E|---------------|----------|--------------------|-------|
A|---------------|----------|--------------------|-------|
D|--¡------------|----------|--¡-----------------|-------|
G|-10-9-9-9-9¡---|----------|-10-9-9-9¡---10-7-7-|--7--7-|
B|-10--8-8-8-8-10|-10-13-13-|-10--8-8-8-10-------|-------|
E|---------------|----------|--------------------|-------|


          Dm                 F              C            Dm
E|----------------------|-----------|-----------------|-------||
A|----------------------|-----¡-----|---------¡-------|-------||
D|-¡--------------------|-2-2-2-5-5-|-------2-2-3-3-2-|---0---||
G|-0-2-2-------2-0-2-2-0|-----------|-5-5-5-----------|-------||
B|-------3-3-3----------|-----------|-----------------|-------||
E|----------------------|-----------|-----------------|-------||BIS

                             FIN
                        Suerte amigos

********************************************************************
Un saludo para todos mis patas  de la facultad de Derecho de la UNSA
y en especial para ?chavo?. por cierto toy buscando patas que quieran
formar un grupo de música; de preferencia que radiquen en
AREQUIPAMANTA jeje. cualquier cosa comunicarse con
CELESTE (diltopagal_hai@ Arequipa 23/nov/2009
Suggest correction
Give kudos to tab author, rate the tab!
1 2 3 4 5
comments
print report bad tab
guest
You may want to rate the tab now too:
select rating
Wanna post a correction for this tab? Suggest correction