Oops, an error
Loading. Please wait.

Misterio - Máquina Chords

12 views 1 this week
no commentswrite comment
1 2 3 4 5
3 more votes to show rating
add to favorites
launch autoscroll
font size
0
reset
transpose
0
reset
simplify chords
display chords
guitar tuner
Autoscroll
slow
fast
+/-
esc
set tempo
stop
Strumming
There is no strumming pattern for this song yet. and get +5 IQ
Aca laca cancion de inicio de la gran serie MISTERIO.
Grupo Cuychillazo
Y el intro dice asi

e -----------------------------
B -----------------------------
G -----------------------------
D -----------------------------
A -----------2h3p2p0-2-0-------
E -2-2-0-2-2-------------2-0---

e -----------------------------
B -----------------------------
G -----------------------------
D -----------------------------
A -------------2h3p2p0-2-0-----
E -2-2-2-0-2-2-------------2-0-

e -----------------------------
B -----------------------------
G -----------------------------
D -----------------------------
A -----------2h3p2p0-2-0-------
E -2-2-0-2-2-------------2-0---

e -----------------------------
B -----------------------------
G -----------------------------
D -----------------------------
A -------------2h3p2p0-2-0-----
E -2-2-2-0-2-2-------------2-0-

De ahi empieza a cantar con el siguiente riff que se repite para toda la cancion:

Yo soy la maquina que te da de comer
F#5                   F#5
que te viste, que te peina, que te hace sentir bien
       F#5                         F#5
Yo yo yo yo soy el mounstruo que te hace trabajar
         F#5                        F#5
que te engrie, que te engorda, que te hace vomitar
          F#5                         F#5

     Y ahora tu que vas a hacer?    Acaso vas a responder?
G#5                              G5


e -----------------------------
B -----------------------------
G -----------------------------
D -----------------------------
A ---------0--0-2-0-2-3p2p0----
E -2-2-0-2---2-----------------

Yo soy la musica que tienes que escuchar
F#5                  F#5
que consumes que fabricas desde adentro y para atras
       F#5                       F#5
Yo yo yo yo soy el mounstruo que te hace trabajar
         F#5                        F#5
que te engrie, que te engorda, que te hace vomitar
          F#5                         F#5

     Y ahora tu que vas a hacer?    Acaso vas a responder?
G#5                              G5

e --------------
B --------------
G --------------
D -2-4-7-4s3s2--
A -2-4-7-4s3s2--
E -0-2-5-2s1s0--

Saludos para Juan, Coco y Marcos, y a nuestro grupo 
'hasta el pincho' y a mi esposa Paola Vanessa. Te amo mi amor.
La cancion la pueden descargar en 
Apoyen al Rock Peruano.
Suggest correction
Give kudos to tab author, rate the tab!
1 2 3 4 5
comments
print report bad tab
guest
Wanna post a correction for this tab? Suggest correction