Oops, an error
Loading. Please wait.

Misterio - Máquina Tab

1 view 1 this week
no commentswrite comment
1 2 3 4 5
3 more votes to show rating
add to favorites
launch autoscroll
font size
0
reset
how to read this tab
guitar tuner
×
Best way to learn
"Misterio - Máquina"
Autoscroll
slow
fast
+/-
esc
set tempo
stop
Aca la cancion de inicio de la gran serie MISTERIO.
Y el intro dice asi

e ---------------------------------------------------------
B ---------------------------------------------------------
G ---------------------------------------------------------
D -----------4-5-4---4-------------------4-5-4---4---------
A -4-4---4-4-2-3-2-0-2-0-4---4-4-4---4-4-2-3-2-0-2-0-4-----
E -2-2-0-2-2-------------2-0-2-2-2-0-2-2-------------2-0---

e ---------------------------------------------------------
B ---------------------------------------------------------
G ---------------------------------------------------------
D -----------4-5-4---4-------------------4-5-4---4---------
A -4-4---4-4-2-3-2-0-2-0-4---4-4-4---4-4-2-3-2-0-2-0-4-----
E -2-2-0-2-2-------------2-0-2-2-2-0-2-2-------------2-0---


De ahi empieza a cantar con el siguiente riff que se repite para toda la cancion:

Yo soy la maquina que te da de comer
F#5                   F#5
que te viste, que te peina, que te hace sentir bien
       F#5                         F#5
Yo yo yo yo soy el mounstruo que te hace trabajar
         F#5                        F#5
que te engrie, que te engorda, que te hace vomitar
          F#5                         F#5

     Y ahora tu que vas a hacer?    Acaso vas a responder?
G#5                              G5

e -----------------------------------------------
B -----------------------------------------------
G -----------------------------------------------
D -----------------------------------------------
A ---------0--0-1-0-1-2-0---------0--0-1-0-1-2-0-
E -2-2-0-2---2------------2-2-0-2---2------------

e -----------------------------------------------
B -----------------------------------------------
G -----------------------------------------------
D -----------------------------------------------
A ---------0--0-1-0-1-2-0---------0--0-1-0-1-2-0-
E -2-2-0-2---2------------2-2-0-2---2------------


Yo soy la musica que tienes que escuchar
F#5                  F#5
que consumes que fabricas desde abajo y para atras
       F#5                       F#5
Yo yo yo yo soy el dia que tu tienes que llenar
         F#5                  F#5
la barriga que te ajusta y que te hace sospechar
     F#5                          F#5

     Y ahora tu que vas a hacer?    Acaso vas a responder?
G#5                              G5

e --------------------------------------------------------------
B --------------------------------------------------------------
G --------------------------------------------------------------
D ----------------4-5-4---4-------------------4-5-4---4---------
A ------4-4---4-4-2-3-2-0-2-0-4---4-4-4---4-4-2-3-2-0-2-0-4-----
E -12s0-2-2-0-2-2-------------2-0-2-2-2-0-2-2-------------2-0---

e ---------------------------------------------------------
B ---------------------------------------------------------
G ---------------------------------------------------------
D -----------4-5-4---4-------------------4-5-4---4---------
A -4-4---4-4-2-3-2-0-2-0-4---4-4-4---4-4-2-3-2-0-2-0-4-----
E -2-2-0-2-2-------------2-0-2-2-2-0-2-2-------------2-0---

e -----------------------------------------------------------------------------
B -----------------------------------------------------------------------------
G -----------------------------------------------------------------------------
D -7-7-7-7---4-4-4-4------------7-7-7-7---4-4-4-4------------------------------
A -5-5-5-5-0-2-2-2-2-2-4-7-4----5-5-5-5-0-2-2-2-2-2-4-7-4---2-4-7-4---2-4-7-4--
E -------------------0-2-5-2----------------------0-2-5-2---0-2-5-2---0-2-5-2--

en esta parte ahi un solo de bajo que es

G -----------------------------------------------
D -----------------------------------------------
A ---------0--0-1-0-1-2-0---------0--0-1-0-1-2-0-
E -2-2-0-2---2------------2-2-0-2---2------------

la 1era guitarra hace un FADE IN

e --19~~~---
B ----------
G ----------
D ----------
A ----------
E ----------

y la segunda hace este riff

e -----------------------
B -7-7-7-7-7-7-7-7-7-7-7-
G -6-6-6-6-6-6-6-6-6-6-6-
D -----------4-4-4-4-4-4-
A -----------------------
E -----------------------

despues de esto otra vez 1era guitarra, 2da guitarra y bajo juntos

e -----------------------------------------------
B -----------------------------------------------
G -----------------------------------------------
D -----------------------------------------------
A ---------0--0-1-0-1-2-0---------0--0-1-0-1-2-0-
E -2-2-0-2---2------------2-2-0-2---2------------

e -----------------------------------------------------------------------------
B -----------------------------------------------------------------------------
G -----------------------------------------------------------------------------
D -7-7-7-7---4-4-4-4------------7-7-7-7---4-4-4-4------------------------------
A -5-5-5-5-0-2-2-2-2-2-4-7-4----5-5-5-5-0-2-2-2-2-2-4-7-4---2-4-7-4---2-4-7-4--
E -------------------0-2-5-2----------------------0-2-5-2---0-2-5-2---0-2-5-2--

e ---------------------------------------------------------
B ---------------------------------------------------------
G ---------------------------------------------------------
D -----------4-5-4---4-------------------4-5-4---4---------
A -4-4---4-4-2-3-2-0-2-0-4---4-4-4---4-4-2-3-2-0-2-0-4-----
E -2-2-0-2-2-------------2-0-2-2-2-0-2-2-------------2-0---

Yo soy la maquina que te da de comer
F#5                   F#5
que te viste, que te peina, que te hace sentir bien
       F#5                         F#5
Yo yo yo yo soy el mounstruo que te hace trabajar
         F#5                        F#5
que te engrie, que te engorda, que te hace vomitar
          F#5                         F#5

     Y ahora tu que vas a hacer?    Acaso vas a responder?
G#5                              G5


e ---------------------------------------------------------
B ---------------------------------------------------------
G ---------------------------------------------------------
D -----------4-5-4---4-------------------4-5-4---4---------
A -4-4---4-4-2-3-2-0-2-0-4---4-4-4---4-4-2-3-2-0-2-0-4-----
E -2-2-0-2-2-------------2-0-2-2-2-0-2-2-------------2-0---

el solo del final es:

e -9-11-11-9-11p9-9-11-11-12-12-11-12p11-9-11-9-11-11-9-11p9-9-11-11-12-12-11-12p11-9-11-
B ---------------------------------------------------------------------------------------
G ---------------------------------------------------------------------------------------
D ---------------------------------------------------------------------------------------
A ---------------------------------------------------------------------------------------
E ---------------------------------------------------------------------------------------

OUTRO:

e ----------------------------------
B ----------------------------------
G ----------------------------------
D -2-4-7-4---2-4-7-4---2-4-7-4s3s2--
A -2-4-7-4---2-4-7-4---2-4-7-4s3s2--
E -0-2-5-2---0-2-5-2---0-2-5-2s1s0--

Saludos para Juan, Coco y Marcos, y a nuestro grupo 'hasta el pincho' 
y a mi esposa Paola Vanessa. Te amo mi amor.
La cancion se la pueden bajar de '
Apoyen el Rock Peruano.
Suggest correction
Give kudos to tab author, rate the tab!
1 2 3 4 5
comments
print report bad tab
guest
You may want to rate the tab now too:
select rating
Wanna post a correction for this tab? Suggest correction