Oops, an error
Loading. Please wait.

Naruto - Sadness And Sorrow Tab

version 2
version 2

Whole song

Interactive

3,093 views 9 this week
no commentswrite comment
1 2 3 4 5
2 more votes to show rating
add to favorites
launch autoscroll
font size
0
reset
how to read this tab
guitar tuner
Autoscroll
slow
fast
+/-
esc
set tempo
stop
Tuning
E A D G B E
bueno esto es pa los fans de Naruto y nada mas ke esta
grasias vten JuanKarloz..¡


     H.              H.              H.              H.
e|---------------|---------------|---------------|---------------|
B|---------------|---------------|---------------|---------------|
G|---------------|---------------|---------------|---------------|
D|---------------|---------------|---------------|---------------|
A|---------------|---------------|---------------|---------------|
E|---------------|---------------|---------------|---------------|


    H.              H.              H.              W
e|---------------|---------------|---------------|-------------------|
B|---------------|---------------|---------------|-------------------|
G|---------------|---------------|---------------|-------------------|
D|---------------|---------------|---------------|-------------------|
A|---------------|---------------|---------------|-------------------|
E|---------------|---------------|---------------|-------------------|


    W                   W                   W
e|-------------------|-------------------|-------------------|
B|-------------------|-------------------|-------------------|
G|-------------------|-------------------|-------------------|
D|-------------------|-------------------|-------------------|
A|-------------------|-------------------|-------------------|
E|-------------------|-------------------|-------------------|


    W                   W                   W
e|-------------------|-------------------|-------------------|
B|-------------------|-------------------|-------------------|
G|-------------------|-------------------|-------------------|
D|-------------------|-------------------|-------------------|
A|-------------------|-------------------|-------------------|
E|-------------------|-------------------|-------------------|


    W                   W                   W
e|-------------------|-------------------|-------------------|
B|-------------------|-------------------|-------------------|
G|-------------------|-------------------|-------------------|
D|-------------------|-------------------|-------------------|
A|-------------------|-------------------|-------------------|
E|-------------------|-------------------|-------------------|


    W                   H
e|-------------------|--------------------------|
B|-------------------|--------------17--19--20--|
G|-------------------|--------------------------|
D|-------------------|--------------------------|
A|-------------------|--------------------------|
E|-------------------|--------------------------|


e|--17--19--------------------|--------------------|
B|----------17--20----19------|--17----------------|
G|----------------------------|--------------------|
D|----------------------------|--------------------|
A|----------------------------|--------------------|
E|----------------------------|--------------------|


e|------17--------------19----|--19--------17--------|
B|--20------20--19------------|----------------------|
G|----------------------------|----------------------|
D|----------------------------|----------------------|
A|----------------------------|----------------------|
E|----------------------------|----------------------|


e|--17--19--------------------|--------------------|
B|----------17--20----19------|--17----------------|
G|----------------------------|--------------------|
D|----------------------------|--------------------|
A|----------------------------|--------------------|
E|----------------------------|--------------------|


e|------17----------------------|---------------------|-------------------|
B|--20------20--19--------------|--17-----------------|-------------------|
G|----------------------16---16-|---------------------|-------------------|
D|------------------------------|---------------------|-------------------|
A|------------------------------|---------------------|-------------------|
E|------------------------------|---------------------|-------------------|


    W                   W                   W
e|-------------------|-------------------|-------------------|
B|-------------------|-------------------|-------------------|
G|-------------------|-------------------|-------------------|
D|-------------------|-------------------|-------------------|
A|-------------------|-------------------|-------------------|
E|-------------------|-------------------|-------------------|


    W                   W                   W                   H
e|-------------------|-------------------|-------------------|-----------|
B|-------------------|-------------------|-------------------|-----------|
G|-------------------|-------------------|-------------------|-----------|
D|-------------------|-------------------|-------------------|-----------|
A|-------------------|-------------------|-------------------|-----------|
E|-------------------|-------------------|-------------------|-----------|


e|--17--19----------------------|--------------------|
B|----------17--20------19------|--17----------------|
G|------------------19----------|--------------------|
D|------------------------------|--------------------|
A|------------------------------|--------------------|
E|------------------------------|--------------------|


e|------17---------------19----|--19--------17--------|
B|--20------20--19--L----------|--20--------19--------|
G|-----------------------------|--19--------19--------|
D|-----------------------------|----------------------|
A|-----------------------------|----------------------|
E|-----------------------------|----------------------|


e|--17--19-----------------------|--------------------|
B|----------17--20------19--L----|--17----------------|
G|------------------19-----------|--------------------|
D|-------------------------------|--------------------|
A|-------------------------------|--------------------|
E|-------------------------------|--------------------|


e|------17---------------------|---------------------------|
B|--20------20--19--L----------|--17--------L--------------|
G|-----------------------------|---------------17--19--21--|
D|-----------------------21----|--17--------L--------------|
A|-----------------------------|---------------------------|
E|-----------------------------|---------------------------|


e|--20--------L----L----|----------------------------------|
B|----------------------|--------------------------15--17--|
G|----------------------|----------------------16----------|
D|----------------------|----------14--16--17--------------|
A|----------------------|------14--------------------------|
E|----------------------|--12------------------------------|


e|--14--------------22--L--------||
B|------(20)--(24)---------------||
G|-------------------------------||
D|-------------------------------||
A|-------------------------------||
E|-------------------------------||
Suggest correction
Give kudos to tab author, rate the tab!
1 2 3 4 5
comments
print report bad tab
guest
Wanna post a correction for this tab? Suggest correction