Oops, an error
Loading. Please wait.

Oliver Y Benji Tab

91 views 3 this week
no commentswrite comment
1 2 3 4 5
2 more votes to show rating
add to favorites
launch autoscroll
font size
0
reset
how to read this tab
guitar tuner
Autoscroll
slow
fast
+/-
esc
set tempo
stop
Help us to improve Ultimate-Guitar.com Take our survey!
×
Estrofas

E|-0-2-3-0-7-0-7-0-7-0---0-2-3-0-7-0-7-0-7-0------|
A|------------------------------------------------|
D|------------------------------------------------|

E|-0-2-3-0-7-0-7-0-7-0-7-0---7-7-7-5-8-8-7--------|
A|------------------------------------------------|
D|------------------------------------------------|

E|-3-5-7-7-7-7-7-5-3-7---2-3-5-5-5-5-5-3-2-5------|
A|------------------------------------------------|
D|------------------------------------------------|

E|-0-2-3-3-3-3-3-2-0-3-3-3-3-3-3-2-0---3-5-7------|
A|------------------------------------------------|
D|------------------------------------------------|

E|-3-5-7-7-7-7-7-5-3-7---7-8-10-10-10-10-10-8-7-10--|
A|--------------------------------------------------|
D|--------------------------------------------------|

E|-10-11-13-11-10-8-10-8-6-8-10-10-10-10-10-10-10---|
A|--------------------------------------------------|
D|--------------------------------------------------|

Estribillo


E|-8-8-5-8-5-5-5-6-8-6-5---8-5-8-8-5-5-5-6-8-6-5--|
A|------------------------------------------------|
D|------------------------------------------------|

E|-10-6-10-10-6-6-6-8-10-8-6-8--8-8-8-10-8-6-8----|
A|------------------------------------------------|
D|------------------------------------------------|
Suggest correction
Give kudos to tab author, rate the tab!
1 2 3 4 5
comments
print report bad tab
guest
You may want to rate the tab now too:
select rating
Wanna post a correction for this tab? Suggest correction