Oops, an error
Loading. Please wait.

Pantera Rosa Tab

version 1
version 1

Whole song

592 views 6 this week
no commentswrite comment
1 2 3 4 5
3 more votes to show rating
add to favorites
launch autoscroll
font size
0
reset
how to read this tab
guitar tuner
×
Best way to learn
"Pantera Rosa"
Autoscroll
slow
fast
+/-
esc
set tempo
stop
1----------------------------------------------
2----------------------------------------------
3----------------------------------------------
4------------1/2-------------1/2-----2/1-------
5------4/5--------4/5-----------------------5/4
6----------------------------------------------


1----------------------------------------------------------------
2----------------------------------------------------------------
3-------------------------------------5/4--------4/2-----2/0-----
4------1/2----4/5-----1/2-------4/5--------2/5--------------2/0/2
5--4/5-----------------------------------------------------------
6----------------------------------------------------------------

1--------------------------------------------------------
2-----------------------------------------------------5/4
3----------------------------------------5/4-----4-------
4--------1/2-----4/5-----1/2-------4/5---------5---------
5--4/5---------------------------------------------------
6--------------------------------------------------------


1----------------------------------------------------------------
2----------------------------------------------------------------
3-------------------------------------5/4--------4/2-----2/0-----
4------1/2----4/5-----1/2-------4/5--------2/5--------------2/0/2
5--4/5-----------------------------------------------------------
6----------------------------------------------------------------


1--------------------------------------------------------------------
2---------------3/5-----3--------------------------------------------
3--------------------------4---2-----------3/2-3/2-3/2-3/2-2/0-------
4--------1/2----------------------5--2--------------------------2/0/2
5---4/5--------------------------------------------------------------
6--------------------------------------------------------------------
Suggest correction
Give kudos to tab author, rate the tab!
1 2 3 4 5
comments
print report bad tab
guest
You may want to rate the tab now too:
select rating
Wanna post a correction for this tab? Suggest correction