Oops, an error
Loading. Please wait.

Pantera Rosa Tab

version 2
version 2

Whole song

251 views 1 this week
no commentswrite comment
1 2 3 4 5
3 more votes to show rating
add to favorites
launch autoscroll
font size
0
reset
how to read this tab
guitar tuner
Autoscroll
slow
fast
+/-
esc
set tempo
stop
Help us to improve Ultimate-Guitar.com Take our survey!
×
E|---------------
B|---------------
G|---------------
D|---------------       DEJAR SONAR 3 TIEMPOS
A|--4/5--6/7-----      (En estos tiempos puedes golpear la guitarra
E|--------------- X 2   para marcar los tiempos o chasquiar los dedos)


E|--------------------------------|-----------
B|--------------------------------|-----------
G|----------------------------5/4-|------4/3--
D|------------4/5--------4/5------|-2/5-------
A|--4/5--6/7-------6/7------------|-----------
E|--------------------------------|-----------


E|---------------------
B|---------------------
G|---------------------
D|---7----5/7-5-------- SE TOCA RAPIDO
A|--------------7-5/7--
E|---------------------


E|--10/12--10-------------------------------------------------------
B|--------------12--10--------9/10-9/10--9/10--9/10--8--------------
G|----------------------12--9---------------------------9--7/9--7/9-
D|------------------------------------------------------------------
A|------------------------------------------------------------------
E|------------------------------------------------------------------

SE REPITE DESDE EL PRINCIPIO Y ACABA ASI

E|--7-5-3-0-3-5-3--------------------------
B|-----------------------------------------
G|-----------------------------------------

SI TIENEN PROBLEMAS CON LA CANCION MANDENME UN CORREO A:
odyzhium@

suerte ;)
Suggest correction
Give kudos to tab author, rate the tab!
1 2 3 4 5
comments
print report bad tab
guest
You may want to rate the tab now too:
select rating
Wanna post a correction for this tab? Suggest correction