Oops, an error
Loading. Please wait.

Pantera Rosa Tab

version 3
version 3

Whole song

163 views 1 this week
no commentswrite comment
1 2 3 4 5
3 more votes to show rating
add to favorites
launch autoscroll
font size
0
reset
how to read this tab
guitar tuner
×
Best way to learn
"Pantera Rosa"
Autoscroll
slow
fast
+/-
esc
set tempo
stop
e||---------------------|--------------------|--------------------|
B||---------------------|--------------------|--------------------|
G||·--------------------|--------------------|-----------------0--|
D||·-----0--1--2--------|-----0--1--2--------|-----0--1--2--4-----|
A||---4-----------2-----|--4-----------2-----|--4-----------------|
E||------------------0--|-----------------0--|--------------------|

e||---------------------|--------------|------------------|
B||---------------1--0--|--------------|------------------|
G||------------0--------|-----0--4--3--|--2--0------------|
D||---1--2--4-----------|--2-----------|--------2--0--2---|
A||---------------------|--------------|------------------|
E||---------------------|--------------|------------------|

e||---------------------|--------------------|--------0-----------|
B||---------------------|--------------1--0--|-----0-----4--5-----|
G||------------------0--|-----------0--------|--0-----------------|
D||------0--1--2--4-----|--1--2--4-----------|--------------------|
A||---4-----------------|--------------------|--------------------|
E||---------------------|--------------------|--------------------|

e||---------------|--0-----------------|-----------------------|
B||---------------|-----3--0-----------|-----------------------|
G||---------------|-----------2--0-----|--3/2--3/2--3/2--3/2---|
D||------0--1--2--|-----------------2--|-----------------------|
A||---4-----------|--------------------|-----------------------|
E||---------------|--------------------|-----------------------|

e||------------------|----------|----------------------||
B||------------------|----------|----------------------||
G||---0--------------|--2/0-----|--0------------------·||
D||------2--0--2--2--|-------2--|-----2--0--2--2------·||
A||------------------|----------|----------------------||
E||------------------|----------|----------------------||


SALU2 A TODOS , EN ESPECIAL A LOS CRXZADOS DE CHILE!!!!!
Suggest correction
Give kudos to tab author, rate the tab!
1 2 3 4 5
comments
print report bad tab
guest
You may want to rate the tab now too:
select rating
Wanna post a correction for this tab? Suggest correction