Oops, an error
Loading. Please wait.

Pucca Bass

23 views 3 this week
no commentswrite comment
1 2 3 4 5
3 more votes to show rating
add to favorites
launch autoscroll
font size
0
reset
guitar tuner
×
Best way to learn
"Pucca"
Autoscroll
slow
fast
+/-
esc
set tempo
stop
G|---------------------------------------------------|
D|---------------------------------------------------|
A|-------------------------15-15-15-15---------------|
E|--17-14---14-14--12-14-----------------14/13/14----|


G|---------------------------------------------------------|
D|----------------------------------------------15-16-17---|
A|----------------------15----------14---------------------|
E|--17-14---12-17-14--------13-15------12-14---------------|


G|----------------------------------------------------------|
D|----------------------------------------------------------|
A|--------------------------------------15-15------13-------|
E|-15--13-13-13-14-15--13-13-13-14-15----------13------15---|


G|----------------------------------------------------------|
D|----------------------------------------------------------|
A|--------------------------------------15-15------13-13----|
E|-15--13-13-13-14-15--13-13-13-14-15----------13-----------|


G|--------------------------------------------------|
D|--------------------------------------------------|
A|-------------------------15-15-15-15--------------|
E|--17-14---14-14--12-14-----------------14/13/14---|


G|----------------------------------------------------------|
D|----------------------------------------------15-16-17----|
A|----------------------15----------14----------------------|
E|--17-14---12-17-14--------13-15------12-14----------------|
Suggest correction
Give kudos to tab author, rate the tab!
1 2 3 4 5
comments
print report bad tab
guest
You may want to rate the tab now too:
select rating
Wanna post a correction for this tab? Suggest correction