Oops, an error
Loading. Please wait.

Pucca Tab

version 1
version 1

Whole song

71 views 1 this week
no commentswrite comment
1 2 3 4 5
2 more votes to show rating
add to favorites
launch autoscroll
font size
0
reset
how to read this tab
guitar tuner
×
Best way to learn
"Pucca"
Autoscroll
slow
fast
+/-
esc
set tempo
stop
ESTA CANCION ES MUY FACIL NADA MAS QUE FALTA LA PARTE DONDE DICE
PUPUPUCA PUPUPUPUCA

E----------------------------------------------------
B-12------------------------------------12------12---
G---12--12-12-12-10-12---12-12-12-10-12---12-10---10-
D----------------------------------------------------
A----------------------------------------------------
E----------------------------------------------------

E----------------------------------------------------
B----------------------------------------------------
G---10-10-10-12-10-10-10-12-10-11-12-----------------
D----------------------------------------------------
A----------------------------------------------------
E----------------------------------------------------

E---------------------------------------------------
B----13 -13--11-10--8--10--11-----------------------
G---------------------------------------------------
D---------------------------------------------------
A---------------------------------------------------
E---------------------------------------------------

E---------------------------------------------------
B----10-10-8-10-11-----10-10-10-10-8-8--------------
G---------------------------------------------------
D---------------------------------------------------
A---------------------------------------------------
E---------------------------------------------------

E---------------------------------------------------
B----13 -13--11-10--8--10--11----------10-10-10-----
G---------------------------------------------------
D---------------------------------------------------
A---------------------------------------------------
E---------------------------------------------------

Y SE REPITE TODA LA CANCION
Suggest correction
Give kudos to tab author, rate the tab!
1 2 3 4 5
comments
print report bad tab
guest
You may want to rate the tab now too:
select rating
Wanna post a correction for this tab? Suggest correction