Oops, an error
Loading. Please wait.

Pucca Tab

version 2
version 2

Whole song

26 views 1 this week
no commentswrite comment
1 2 3 4 5
3 more votes to show rating
add to favorites
launch autoscroll
font size
0
reset
how to read this tab
guitar tuner
Autoscroll
slow
fast
+/-
esc
set tempo
stop
Help us to improve Ultimate-Guitar.com Take our survey!
×
refacil una d mis series favoritas.... comen fideos...
lo busco lo beso etc etc jaja aca va la cancion completa

Coro

g|---------------5|
d|-------5--6-7--3|(x8)
a|-5--8--3--4-5---|
E|-3--6-----------|
Pucca quiere a Garu
Divertido amor
Comen fideos
Lo buscó, lo besó
PAM PAM PAM!!


Intermedio

g|---------------------|
d|---------------------|
a|--------5-5--5-4-4--4| (x4)
E|-3-3--3--------------|
pupupupupuuu pupupupupuu cca dulce amor pu PUU!!!
pupupupupuuu pupupupupuu cca dulce amor pu pu

(coro)

Otro

g|-----------|
d|---5--6-7--|
a|---3--4-5--|Fin
E|-----------|
Pam Pam Pam!!!

Salu2
>Juanito

v-lX t /->o
Suggest correction
Give kudos to tab author, rate the tab!
1 2 3 4 5
comments
print report bad tab
guest
You may want to rate the tab now too:
select rating
Wanna post a correction for this tab? Suggest correction