Oops, an error
Loading. Please wait.

Quico - El Sapito Tab

887 views 1 this week
no commentswrite comment
1 2 3 4 5
3 more votes to show rating
add to favorites
launch autoscroll
font size
0
reset
how to read this tab
guitar tuner
×
Best way to learn
"Quico - El Sapito"
Autoscroll
slow
fast
+/-
esc
set tempo
stop
Ritmo: (un bajo y luego el rasgueo, así con todos los acordes)


    D      D/F#      Em        A
e----2--------2-------0--------0--
B----3--------3-------0--------2--
G----2--------2-------0--------2--
D--0--------4---------------------
A----------------------------0----
E-------------------0-------------


   D           D/F#     Em A
Ah uhm dijo un dia un sapito
   D           D/F#     Em        A
Ah uhm dijo un dia un sapito para mi
      D           D/F#   Em   A
Los sapitos hacen uhm ah uhm mmm
      D           D/F#   Em   A
Los sapitos hacen uhm ah uhm mmm...


Esto antes de volver a empezar:

e-------2--2-------2-2------2----2----3-3-
B-------3--3-------3-3------3----3----2-2-
G-------2--2-------2-2------2----2----3-3-
D----0----------0---------0---------0-----
A-------------0---------0------0----------
E-----------------------------------------


   D           D/F#    Em A
Ah uhm dijo un dia un sapito
   D        D/F#      Em        A
Ah uhm dijo otro un sapito para si
      D           D/F#   Em   A
Los sapitos hacen uhm ah uhm mmm
      D           D/F#   Em   A
Los sapitos hacen uhm ah uhm mmm
Suggest correction
Give kudos to tab author, rate the tab!
1 2 3 4 5
comments
print report bad tab
guest
You may want to rate the tab now too:
select rating
Wanna post a correction for this tab? Suggest correction