Oops, an error
Loading. Please wait.

Ren Y Stimpy Tab

31 views 1 this week
no commentswrite comment
1 2 3 4 5
3 more votes to show rating
add to favorites
launch autoscroll
font size
0
reset
how to read this tab
guitar tuner
Autoscroll
slow
fast
+/-
esc
set tempo
stop
Help us to improve Ultimate-Guitar.com Take our survey!
×
Tema Con Que Empieza La Caricatura
     
   G/Limpia    
e|----------|------|-5----------|-5-5---------|-5----------|-------------|
B|----------|------|-7----------|-7-7---------|-5----------|-7-7---------|
G|----------|------|-6----------|-6-6---------|-5----------|-6-6---------|
D|----------|------|-5----------|-5-5---------|-4----------|-5-5---------|
A|----------|------|------------|-------------|------------|-------------|
E|----------|------|------------|-------------|------------|-------------|

e|-7-----5-----|-5-5-----------------|----------------------------------|
B|-7-----5-----|-7-7------x-x-x-x----|----x-7-7-x--x-7----7-(7)\-x--x---|
G|-7-----5-----|-6-6------x-x-x-x----|----x-6-6-x--x-6----6-(6)\-x--x---|
D|-6-----5-----|-5-5------x-x-x-x--0-|----x-5-5-x--x-5----5-(5)\-x--x---|
A|-------------|-------------------0-|----------------------------------|
E|-------------|---------------------|-5--------------------------------|

e|----------------------|--------5---5----5-----------|
B|----5-7-7---7----7----|----4-5-5---5----5----x-x--x-|
G|----6-6-6---6----6----|----4-5-5---5----5----x-x--x-|
D|----5-5-5---5----5----|------4-4---4----4----x-x--x-|
A|----------------------|-----------------------------|
E|-5--------------------|-----------------------------|

e|------5-5---5---5---------|
B|-x--x-7-7---7---7----x-x--|
G|-x--x-6-6---6---6----x-x--|
D|-x--x-5-5---5---5----x-x--|
A|--------------------------|
E|--------------------------|

e|------7-7-7---7---7---|---5---5---5---------12-14-|
B|----7-7-7-7---7---7---|---7---7---7---13h14-------|
G|------7-7-7---7---7---|---6---6---6---------------|
D|------6-6-6---6---6---|---5---5---5---------------|
A|----------------------|---------------------------|
E|----------------------|---------------------------|

e|-17-----17---17---15---14S12----|
B|--------------------------------|
G|--------------------------------|
D|--------------------------------|
A|--------------------------------|
E|--------------------------------|

e|---15-14p12-12-------12---------|-----------------------------------------|
B|---------------13S15------13-13-|-13p12----13---13----13---13----13p12----|
G|--------------------------------|-------14-----------------------------14-|
D|--------------------------------|-----------------------------------------|
A|--------------------------------|-----------------------------------------|
E|--------------------------------|-----------------------------------------|

e|--------------------------------------|
B|-12-----------------------------------|
G|----14p12-11--------------------------|
D|-------------13\---10---10-(10)/------|
A|--------------------------------------|
E|--------------------------------------|

           fast picking
e|-12-12-11-10-9-8-7-6-5-5-5-5-4-4-3-3-2-2-2-0-|-4S5-5-----------4-5-----|
B|---------------------------------------------|-------8-7-6-5-7---------|
G|---------------------------------------------|-------------------------|
D|---------------------------------------------|-------------------------|
A|---------------------------------------------|-------------------------|
E|---------------------------------------------|-------------------------|

e|-11----11-11-11-11-11-11-11-11-11-11-11-11-11-11-11-11-|
B|-12----12-12-12-12-12-12-12-12-12-12-12-12-12-12-12-12-|
G|-11----11-11-11-11-11-11-11-11-11-11-11-11-11-11-11-11-|
D|-------------------------------------------------------|
A|-------------------------------------------------------|
E|-------------------------------------------------------|

e|-11/--------|--------------*|
B|-12/--------|-19\----------*|
G|-11/--------|-18\----------*|
D|------------|--------------*|
A|------------|--------------*|
E|------------|--------------*|
 
ahi acaba la rola esta radical
Suggest correction
Give kudos to tab author, rate the tab!
1 2 3 4 5
comments
print report bad tab
guest
You may want to rate the tab now too:
select rating
Wanna post a correction for this tab? Suggest correction