Oops, an error
Loading. Please wait.

Saint Seiya Tab

277 views 3 this week
no commentswrite comment
1 2 3 4 5
3 more votes to show rating
add to favorites
launch autoscroll
font size
0
reset
how to read this tab
guitar tuner
Autoscroll
slow
fast
+/-
esc
set tempo
stop
E ---7-------7-8-7------5-8-7---------7-----------------------------<>
B -----8-5-8-------------------7-8-10-------------------------------<>
G ------------------------------------------------------------------<>
D ------------------------------------------------------------------<>
A ------------------------------------------------------------------<>
E ------------------------------------------------------------------<>

E ---0------5-5-13-12----------12-----------------------------------<>
B -----12-------------12-13-15--------------------------------------<>
G ------------------------------------------------------------------<>
D ------------------------------------------------------------------<>
A ------------------------------------------------------------------<>
E ------------------------------------------------------------------<>

E ---7-------7---------7--------------------------------------------<>
B -----8-5-8-------4-7-----5-5--------------------------------------<>
G ------------------------------------------------------------------<>
D ------------------------------------------------------------------<>
A ------------------------------------------------------------------<>
E ------------------------------------------------------------------<>
Está es la versión del santuario cuando shion y dokho están platicando
,esto va para a quienes les gusta está super caricatura ,le envio un saludo
a mi novia LUPITA que la amo mucho Paco que tambien es fans ,aL grupo
de ASIS ,al grupo de teatro de San Francisco del coecillo me pueden
localizar mas en:(malacara-ariesdosaint@ y
arriba MU DE ARIES
Suggest correction
Give kudos to tab author, rate the tab!
1 2 3 4 5
comments
print report bad tab
guest
You may want to rate the tab now too:
select rating
Wanna post a correction for this tab? Suggest correction