Oops, an error
Loading. Please wait.

Saint Seiya - Ikki Theme Tab

version 2
version 2

Whole song

545 views 3 this week
no commentswrite comment
1 2 3 4 5
3 more votes to show rating
add to favorites
×
Save as Personal and add changes to this tab that will be seen only by you. Learn more ›
×
You can save this tab as Personal to edit and correct it or add notes. All changes will be seen only by you. Learn more »
save as personal
new!
launch autoscroll
font size
0
reset
how to read this tab
guitar tuner
Autoscroll
slow
fast
+/-
esc
set tempo
stop
Shiryu & Ikki Theme
La interpretacion de esta rola la pueden chekar en mi video


e|--0-2-5-3-2-3-------0-----0-3-0-7-10-8--5------|
B|------?-------0----0-0---0-------------5-5-----|
G|------------------0---0-0-------------5---5----|
D|-----------------2-------------------------7---|
A|----------------2---------------------------7--|
E|--------------0--------0-------------5---------|


e|----5-7-8-7-5-0-3--------5s3-3--3-2--2--------|
B|---5----?----------0--5--------1----1---------|
G|--5---------------0-0--0------0----0----------|
D|----------------------------------------------|
A|-----------------------------2----------------|
E|-5--------------0-----------------------------|


e|------5---2----------0-----0----12-arm-----------|
B|-----2---2?-----4---------0-0---12-arm-----------|
G|--2-2---2----(2)---------0---0?-12-arm-----------|
D|------------4-----------2------------------------|
A|-----------------------2-------------------------|
E|-2-------------------0---------------------------|


e|--0-2-5-3-2-3------------0?----0--3-------0-----|
B|------?-------0----0-----0---0-------1-----1----|
G|------------------0-0----1--1---1--1----0---0---|
D|-----------------2---2---0-0-----------2-2---2--|
A|----------------2-----2--2-----------0----------|
E|--------------0---------------------------------|

e|-------0--5--5-----2--2-----2-4-2---0-----0---12-|
B|---1---?----------3--3---4----------0----0-0--12-|
G|--0-0---0--0---2-2--2------2-2-2-2------0---0-12-|
D|---------------------------------------2---------|
A|-0------------------------------------2----------|
E|-------------2-----------2----------0------------|


Esta shida la version tengo ke aclarar ke la sake de un
video que vi en utube... Gracias a ese compa
Puedo tener uno ke otro Errorsillo como sea...
Dudas, quejas, sugerencias, consejos
regaños, mentadas XD esas aka --> kraken_x1@
Saludos desde Morelia,Michoacán, México
Suggest correction
Give kudos to tab author, rate the tab!
1 2 3 4 5
comments
print report bad tab
guest
Wanna post a correction for this tab? Suggest correction