Oops, an error
Loading. Please wait.

Saint Seiya - Nocturno De Orfeo Tab

version 2
version 2

Whole song

106 views 1 this week
no commentswrite comment
1 2 3 4 5
3 more votes to show rating
add to favorites
launch autoscroll
font size
0
reset
how to read this tab
guitar tuner
Autoscroll
slow
fast
+/-
esc
set tempo
stop
Help us to improve Ultimate-Guitar.com Take our survey!
×
String Nocturne, Lira de Orfeo

La escribí con ayuda de otra tablatura pero que estaba medianamente hecha
y tenía algunos errores,si la pueden mejorar adelante :) ojala les ayude


Duilio Fonseca G.


           x2            x2
e|-----------|-------------|------------------------8-10-11-10-8----
B|--8--------|--8----------|-8-8---8-9-8---8-9-8---8-------------8-9
G|-----0-7-8-|------7-8-10-|----------------------------------------
D|--10-------|--10---------|----------------------------------------
A|-----------|-------------|----------------------------------------
E|-----------|-------------|----------------------------------------

                                                      x3
e|----------------------------------10-11-13-10--------|------------
B|-------------8---------8--------8------------8-------|------------
G|--10-10---10---10---10---10---------------------10-8-|------------
D|-----------------------------------------------------|------------
A|-----------------------------------------------------|------------
E|-----------------------------------------------------|------------


e|-----------------------------------8-10-11-10-8-15-13-------------
B|----6-8---8-9-8---8-9-8---8-9-8---8-------------------------------
G|--8---------------------------------------------------------------
D|------------------------------------------------------------------
A|------------------------------------------------------------------
E|------------------------------------------------------------------


e|--10-11-13---13-15-13--13-15-13--13-15-13---10-11-13--------------
B|-------------------------------------------------------8---9---8--
G|--------------------------------------------------13---10--10--10-
D|------------------------------------------------------------------
A|------------------------------------------------------------------
E|------------------------------------------------------------------


e|--8---------8--8---||
B|--8--------8---8---||
G|----------8----8---||
D|--------10-----10--||
A|------10-------10--||
E|-----8---------8---||
Suggest correction
Give kudos to tab author, rate the tab!
1 2 3 4 5
comments
print report bad tab
guest
You may want to rate the tab now too:
select rating
Wanna post a correction for this tab? Suggest correction