Oops, an error
Loading. Please wait.

Saint Seiya - Pegasus Fantasy Tab

version 1
version 1

Whole song

460 views 6 this week
no commentswrite comment
1 2 3 4 5
3 more votes to show rating
add to favorites
×
Save as Personal and add changes to this tab that will be seen only by you. Learn more ›
×
You can save this tab as Personal to edit and correct it or add notes. All changes will be seen only by you. Learn more »
save as personal
new!
launch autoscroll
font size
0
reset
how to read this tab
guitar tuner
Autoscroll
slow
fast
+/-
esc
set tempo
stop
esta rola la conosco como SAd Brothers  XD se toca lenta pero es
el opening del anime....
pueden chekar como se toca en este video


e|--------0--------------0---------------------------|
B|--0-1-3----0-1p0---------3-3-1-1h3-1-0----0-----0-0|
G|-2--------2-----2-----2-2---------------0-----0--2-|
D|---------2-------2---2-------------------2---2-2---|
A|--------0-----------0----------2-------2----2------|
E|---------------------------------------------------|


e|------------------0--0---0-2s4----4-------|
B|-1--1-0---3---1-3------3---------3--------|
G|---2---2----0-------0-0---------4---------|
D|--2--------0-0----------------------------|
A|------------------3-----------------------|
E|-1--------3--------------------0----------|


e|--------0----------------0---------------------------|
B|--0-1-3------0-1p0---------3-3-1-1h3-1-0----0-----0-0|
G|-2----------2-----2-----2-2---------------0-----0--2-|
D|---------0h2-------2---2-------------------2---2-2---|
A|--------0-----------0------------2------2----2-------|
E|-----------------------------------------------------|


e|--------0----------------------------------------|
B|-1p0-1-------3---1--0-0-------0-1p0----2-2-------|
G|----2--2-2-----0--0----0--2----2---2---2-2--2-----|
D|------0------------------(2)-2------2------2-2----|
A|--------------------------0----------------------|
E|-1-----------3------------------------2--2-------|


e|-1---1-0-0--0---------3-1-0------------------|
B|----------3-----1s3----------3--1?-0h1-0-----|
G|---2----------2-----0--0-0-0--0---0---2------|
D|-0-------------------------------2-----------|
A|------------0---1s3---3---3--2--0------------|
E|---------------------------------------------|


e|-------------------------------------(0)?-12arm--|
B|-1p0?-1-0----3-1---3----------------(0)---12arm--|
G|----2----2-------4----0-0-0-1-2-2s4-------12arm--|
D|----------------------------2-2------------------|
A|----------------------------2-2-2s4--------------|
E|-1----1------3-----3-----------------------------|


e|-----0-------0--------------1p0-------0-----(0)-------|
B|-1-3------0------3-1-0---0?----0---1--1?-1p0-3--3-1p0-|
G|-------2---2---2--2-2-2---2-----2-2-2-2--------0-----0|
D|------2------------------3-------3----3---------------|
A|-----0-------0----------------------------------------|
E|---------------------------------------------3--------|

e|--3-1-0-----0--0-2s--4?-5-5s7----0----------0---------|
B|---------3----1-?------3------0-----0h1p0------3-1-0--|
G|---0-0-0--0--0--------4--------0---2-----2----2-2-2-2-|
D|----------------------------------2-------2-----------|
A|---------2--0--------------------0----------0---------|
E|--3------------------0--------------------------------|


e|------0----------0?------------1-1-0---0---0----------0--|
B|-----(0)-1-----1?-1p0---3---0--0-----3---1--1?-1-----1---|
G|--2-2---2--2--2-2----2----0--0-0--------2----2-----(1)---|
D|---2---------2-----------0-----0-------------------------|
A|-------------------------------2-------0-----------0-----|
E|--1-------1-------------3------3---------------1---------|


Es todo xD jaa! Puedo tener error ahí en los bajos Y_Y no importa XD

tengo ke aclarar ke la sake de un
video que vi en utube...Gracias a ese compa

Esta shida la version ojala les sirva
Dudas, quejas, sugerencias, consejos
regaños, mentadas XD esas aka --> kraken_x1@
Saludos desde Morelia,Michoacán, México
Suggest correction
Give kudos to tab author, rate the tab!
1 2 3 4 5
comments
print report bad tab
guest
Wanna post a correction for this tab? Suggest correction