Oops, an error
Loading. Please wait.

Saint Seiya - Requiem De Cuerdas De Mime Tab

version 1
version 1

Whole song

1,520 views 12 this week
no commentswrite comment
1 2 3 4 5
3 more votes to show rating
add to favorites
launch autoscroll
font size
0
reset
how to read this tab
guitar tuner
Autoscroll
slow
fast
+/-
esc
set tempo
stop
Help us to improve Ultimate-Guitar.com Take our survey!
×
KE onda LOOOCOS !! soy el MEXICANO y aki les dejo una
rolita bien shingona YEAH la sake en una tarde Lluviosa y
se la dedico ami compare ABEL MARTINEZ "El Piste"

                 Facil
=O Dificultad :->Intermedio<-
                 Dificil
XD XD XD
Las notas ke estan entre  Paréntesis  puedes tocarlas o no


e|--7---0-7sli-12----0-15---14---0-14sli----------|
B|-----0--0--------0---(0)-?(0)-0--(0)------------|
G|----0-----0-----0-------0----0--------0---------|
D|------------------------------------------------|
A|--7---------------------------------------------|
E|-(0)---------12------12-------------------------|


e|--7---0---7--0-7sli---17--15--14--12---0--------|
B|-----0-0----0--0------(0)-(0)-(0)-----0-0-------|
G|----0---0--0----0--------0---0---0---0---0------|
D|------------------------------------------------|
A|--7-------5-------------------------------------|
E|-----------------------0-----------0------------|


e|-12-14-15----17---0----17--19---20--------------|
B|-----------------0-0----------------------------|
G|---0--0--0--17--0----17?-17---17--17------------|
D|------------------------------------------------|
A|-----------0------------------------------------|
E|--0---------------------------------------------|


e|-19---0-19---12--0--15----14----14---------------|
B|-----0?-(0)-----0---(0)-------12--12---12-14-16--|
G|----0------0---0-------0----11------11---0--0--0-|
D|-------------------------------------------------|
A|---------------------------------------12--------|
E|--0-----------0-----------12---------------------|


e|-12---0-----------0-------------------------|
B|-----0-0?-12arm--1-1------------------------|
G|----0---0-------0---2-----------------------|
D|--------------------------------------------|
A|--------------------------------------------|
E|--0--------0--------------------------------|

 SE REPITE otra ves y termina con un E rasgueado de 1era a 6ta

Esta shida la version tengo ke aclarar ke la sake de un
video que vi en utube... Gracias a ese compa
Puedo tener uno ke otro Errorsillo como sea...
Dudas, quejas, sugerencias, consejos
regaños, mentadas XD esas aka --> kraken_x1@
Saludos desde Morelia,Michoacán, México
Suggest correction
Give kudos to tab author, rate the tab!
1 2 3 4 5
comments
print report bad tab
guest
You may want to rate the tab now too:
select rating
Wanna post a correction for this tab? Suggest correction