Oops, an error
Loading. Please wait.

Saint Seiya - Requiem De Cuerdas De Mime Tab

version 2
version 2

Whole song

326 views 3 this week
no commentswrite comment
1 2 3 4 5
3 more votes to show rating
add to favorites
launch autoscroll
font size
0
reset
how to read this tab
guitar tuner
Autoscroll
slow
fast
+/-
esc
set tempo
stop
Help us to improve Ultimate-Guitar.com Take our survey!
×
P R I M E R O


SIN PALABRAS...


e -----12-15-14-14------------17-15-14-12----
b 12-12-------------12---12-12---------------
g -------------------------------------------
d -------------------------------------------
a -------------------------------------------
e -------------------------------------------


e -12-14-15--17-17-19-20-19-----15--14--------------12-12-12-
b -----------13-13-15-17-17--12-12--12--12-12-14-15-12-12-12-
g -----------------------------------------------------------
d -----------------------------------------------------------
a -----------------------------------------------------------
e -----------------------------------------------------------
Suggest correction
Give kudos to tab author, rate the tab!
1 2 3 4 5
comments
print report bad tab
guest
You may want to rate the tab now too:
select rating
Wanna post a correction for this tab? Suggest correction