Oops, an error
Loading. Please wait.

Speedy González Tab

28 views 1 this week
no commentswrite comment
1 2 3 4 5
3 more votes to show rating
add to favorites
launch autoscroll
font size
0
reset
how to read this tab
guitar tuner
Autoscroll
slow
fast
+/-
esc
set tempo
stop
ok , esta es la forma de sacar la cancion de speedi gonzales , 
la saque yo asi que vean si esta buena o no.

esto tiene que ser rapido


e--------------------------------
b-10-9-10------------------------
g---------11-10-11---------------
a------------------12-11-12------
d---------------------------12---
e--------------------------------

e--------------------------------
b--------------------------------
g-----------------9-11-12-9------
a---------9-11-12----------------
d-9-10-12------------------------
e--------------------------------

e---------------------------------
b---------------------------------
g-12-11-12-9----9-----------------
a------------12---12-9-11---------
d-------------------------12------
e---------------------------------

e----------------------------------
b-10-10-10-12-10-------------------
g----------------12-11-9-----------
a------------------------12--------
d----------------------------------
e----------------------------------

bueno creo que eso es todo
HONDURAS 100%
NOCHI86@
Suggest correction
Give kudos to tab author, rate the tab!
1 2 3 4 5
comments
print report bad tab
guest
Wanna post a correction for this tab? Suggest correction