Oops, an error
Loading. Please wait.

Tu Sonrisa Tan Resplandeciente Tab

version 2
version 2

Whole song

26 views 1 this week
no commentswrite comment
1 2 3 4 5
3 more votes to show rating
add to favorites
launch autoscroll
font size
0
reset
how to read this tab
guitar tuner
×
Best way to learn
"Tu Sonrisa Tan Resplandeciente"
Autoscroll
slow
fast
+/-
esc
set tempo
stop
e--0h2-2---0-2--3-2-0-----------------0------------3-2-0-2-3--2
B--------3------------3-2-2h3-3-0-2-3---3-2-0---0-3------------
G---------------------------------------------2----------------
D--------------------------------------------------------------
A--------------------------------------------------------------
E---------------------------------------------------------------


e0----0------
B---2---3-2-3
G------------
D------------
A------------
E------------

OK AHORA LES VA EL INTERMEDIO

e-0h2-2-2-2-2-0----2-0-0-0-0-0-0-----0-------------------------
B--------------3----------------3-2---3-3-3-3-2-0-2-0--0----0-2
G-------------------------------------------------------2------
D--------------------------------------------------------------
A--------------------------------------------------------------
E--------------------------------------------------------------

e-----0-2-0h2-2-2-2-2-0---2-0-0-0-2-3-3-4-2-0---0------------2-0
B---4--------------------3--------------------3---3-2--0-0-0----
G---------------------------------------------------------------
D---------------------------------------------------------------
A---------------------------------------------------------------
E---------------------------------------------------------------

e---------------------------------------------------------------
B----3-3-2-0-2-2-2-2h3-3-2-2h3-3-2-2h3-3-3-2-0------------------
G----------------------------------------------2h3-2-2h3-2-2h3-2
D---------------------------------------------------------------
A---------------------------------------------------------------
E---------------------------------------------------------------


e-------------------------------------2-0-0--2-0-2-3-3
B-------------2--4--2-4-0-2--4--2-4-0-----------------
G-2h3-2-2-3-2-----------------------------------------
D-----------------------------------------------------
A-----------------------------------------------------
E-----------------------------------------------------

FINAL

e--0h2-2---0-2--3-2-0-----------------0------------3-2-0-2-3--2
B--------3------------3-2-2h3-3-0-2-3---3-2-0---0-3------------
G---------------------------------------------2----------------
D--------------------------------------------------------------
A--------------------------------------------------------------
E---------------------------------------------------------------

--0---0-2-3-2-0
----3----------
---------------
---------------
---------------
---------------


e--0h2-2---0-2--3-2-0-----------------0------------3-2-0-2-3--2
B--------3------------3-2-2h3-3-0-2-3---3-2-0---0-3------------
G---------------------------------------------2----------------
D--------------------------------------------------------------
A--------------------------------------------------------------
E---------------------------------------------------------------


e0----0------
B---2---3-2-3
G------------
D------------
A------------
E------------
Suggest correction
Give kudos to tab author, rate the tab!
1 2 3 4 5
comments
print report bad tab
guest
You may want to rate the tab now too:
select rating
Wanna post a correction for this tab? Suggest correction