Oops, an error
Loading. Please wait.

Age Of Empires 2 Bass

42 views 1 this week
no commentswrite comment
1 2 3 4 5
3 more votes to show rating
add to favorites
launch autoscroll
font size
0
reset
guitar tuner
×
Best way to learn
"Age Of Empires 2"
Autoscroll
slow
fast
+/-
esc
set tempo
stop
bueno no hay mucho para decir...una tab facil, y entretenida...


G-----------------------------------
D------3-2-0-2------3-2-0-5---------
A--0-5----------0-5-----------------
E-----------------------------------

G-----------------------------------
D------3-2-0-2--2-3-2---------------
A--0-5---------------3-5------------
E-----------------------------------
Suggest correction
Give kudos to tab author, rate the tab!
1 2 3 4 5
comments
print report bad tab
guest
You may want to rate the tab now too:
select rating
Wanna post a correction for this tab? Suggest correction