Oops, an error
Loading. Please wait.

Age Of Empires 2 Tab

116 views 6 this week
no commentswrite comment
1 2 3 4 5
3 more votes to show rating
add to favorites
launch autoscroll
font size
0
reset
how to read this tab
guitar tuner
×
Best way to learn
"Age Of Empires 2"
Autoscroll
slow
fast
+/-
esc
set tempo
stop
Es mi primera Tab. que he escrito, hay dos formas de tocarla, esta es la
grave:


Esta tab. es del video donde salen los dos reyes jugando al ajedrez.

e|-------------------------------------------------
B|-------------------------------------------------
G|-------------------------------------------------
D|-------------------------------------------------
A|------0--3--2--0---2-------0----3---2---0---5----
E|--0--------------------0-------------------------

e|-------------------------------------------------
B|-------------------------------------------------
G|-------------------------------------------------
D|-------------------------------------------------
A|------0--3--2--0---2---2---3---2-----------------
E|--0---------------------------------3-----5------


Esta es la aguda aunque creo que ya se ha escrito, pero la he mejorado para
no cometer tantos fallos:


e|-------------------------------------------------
B|-------------------------------------------------
G|-------------------------------------------------
D|------0--3--2--0---2-------0----3---2---0---5----
A|--0--------------------0-------------------------
E|-------------------------------------------------


e|-------------------------------------------------
B|-------------------------------------------------
G|-------------------------------------------------
D|------0--3--2--0---2---2---3---2-----------------
A|--0---------------------------------3-----5------
E|-------------------------------------------------


A mi me suenan igual, son 2 maneras de tocarla, eligid la vuestra y
tocadla, si encontrais una manera mejor o teneis dudas o algo suena
mal no dudeis en decirmelo: raulo7@
Suggest correction
Give kudos to tab author, rate the tab!
1 2 3 4 5
comments
print report bad tab
guest
You may want to rate the tab now too:
select rating
Wanna post a correction for this tab? Suggest correction