Oops, an error
Loading. Please wait.

Beethoven Virus Tab

version 1
version 1

Whole song

1,820 views 21 this week
no commentswrite comment
1 2 3 4 5
3 more votes to show rating
add to favorites
launch autoscroll
font size
0
reset
how to read this tab
guitar tuner
×
Best way to learn
"Beethoven Virus"
Autoscroll
slow
fast
+/-
esc
set tempo
stop
Hola, a todos les habla Lucifer, esta en mi tercera tab que meto
a la cuerda y en especial esta me costo mucho trabajo sacarla asi que
me portare buena onda con ustedes y la dejare aqui...
La saque de oido y vista la cancion asi que si tiene errores
ustedes improvisen y traten de sacarlo bien, yo solo dejo aqui
lo base, y ami parecer esta bien (bueno se escucha bien)
ya cada quien tiene su opinion... dudas y comentarios ya saben
a mi correo porfa... Califiquenla Saludos

Me encanta esta rola...

Intro
E|----------------------------------------------------------|
B|----------------------------------------------------------|
G|----------------------------------------------------------|
D|-4-----5-----7-----9-----10-----10-9-----7-----5-----2----|
A|-2-0-0-3-0-0-5-0-0-7-0-0-8--0-0-8--7-0-0-5-0-0-3-0-0-4-0-0|
E|----------------------------------------------------------|


E|-------------------------------------------10-12-12-12-12-12v--|
B|---10-12-13--15-12--13-10--10-----10-12-13---------------------|
G|-9-----------------------------13------------------------------|
D|---------------------------------------------------------------|
A|---------------------------------------------------------------|
E|---------------------------------------------------------------|

E|----12-13--------10-12---------------- 10----------------|
B|-15-------12--13-------10--10-12-13-13----12-12-13-10v---|
G|---------------------------------------------------------|X2
D|---------------------------------------------------------|
A|---------------------------------------------------------|
E|---------------------------------------------------------|


E|-----------------------12-10-8------------8--------------|
B|-10-9-10-12-------12-----------12-10-10-12--10-12--------|
G|------------9-8-9----9-----------------------------------|
D|---------------------------------------------------------|
A|---------------------------------------------------------|
E|---------------------------------------------------------|

E|----------------15-13-12-------------12------------------|
B|----------12-------------15-13-13-15---13-14-------------|
G|-12-11-12----12------------------------------------------|
D|---------------------------------------------------------|
A|---------------------------------------------------------|
E|---------------------------------------------------------|

E|----------17-15-14--------------------------------19-17v-15------15----|
B|----14-------------17-15-14-15----------16----16-----------191719--17--|
G|-14----14----------------------14-12-14----16--------------------------|
D|-----------------------------------------------------------------------|
A|-----------------------------------------------------------------------|
E|-----------------------------------------------------------------------|

seg. 0:41
primer guitarra

E|-12v-------------------------------------------------------|
B|----15-13-12-13-15-12-13-12----------12-13---12v-----------|
G|----------------------------14-13-14-------14--------------|
D|-----------------------------------------------------------|
A|-----------------------------------------------------------|
E|-----------------------------------------------------------|

E|----151312---12---------------12----18v-1715----------15-17-------------|
B|-12-------15---15-13-12-13-15----13----------18-17-18-------18-17-15-16v|
G|------------------------------------------------------------------------|
D|------------------------------------------------------------------------|
A|------------------------------------------------------------------------|
E|------------------------------------------------------------------------|

              improvisen aqui
E|----20-19v-----------------17-19-20-19-17--------------------|
B|-16----------------17-19-20---------------20-19-17-----------|
G|-----------17-19-20-------------------------------20-19-17---|
D|-------------------------------------------------------------|
A|-------------------------------------------------------------|
E|-------------------------------------------------------------|

seg. 0:41
segunda guitarra

E|------------------------------------------------------------------|
B|------------------------------------------------------------------|
G|------------------------------------------------------------------|
D|-----------------------------------------4-4-4-4-5-5-5-5-5-5-5-5--|
A|-2-2-2-2-6-6-6-6-7-7-7-7-7-7-7-7-5-5-5-5-2-2-2-2-3-3-3-3-3-3-3-3--|
E|-0-0-0-0-4-4-4-4-5-5-5-5-5-5-5-5-3-3-3-3--------------------------|

E|------------------------------------------------------------------|
B|------------------------------------------------------------------|
G|------------------------------------------------------------------|
D|---------6-6-6-6-7-7-7-7-5-5-5-5-4-4-4-4-8-8-8-8-9-9-9-9-9-9-9-9--|
A|-7-7-7-7-4-4-4-4-5-5-5-5-3-3-3-3-2-2-2-2-6-6-6-6-7-7-7-7-7-7-7-7--|
E|-5-5-5-5----------------------------------------------------------|

aqui ya entran las dos juntas
E|------------------------------------------------------|
B|------------------------------------------------------|
G|------------------------------------------------------|
D|-------7~------5~------7~-7-7~------------------------|
A|--7~-7-5~-5~-5-3~-3~-3-5~-5-5~-7--7--7--7--7----------|
E|--5~-5----3~-3----1~-1---------5--5--5--5--5----------|


E|----------------------------------------13-15-15-15-15-15v---------|
B|---13-15-16--18-15--16-13--13---13-15-16---------------------------|
G|12---------------------------16------------------------------------|
D|-------------------------------------------------------------------|
A|-------------------------------------------------------------------|
E|-------------------------------------------------------------------|

E|----15-16-------13-15v---------------13----------------------------|
B|-18-------15--16------13--13-15-16-16---15-15-16-13v~--------------|
G|-------------------------------------------------------------------|X2
D|-------------------------------------------------------------------|
A|-------------------------------------------------------------------|
E|-------------------------------------------------------------------|

E|-- final-------20~---------|
B|---------------------------|
G|---------------------------|
D|---------------------------|
A|---------------------------|
E|---------------------------|

Si quieren ver el ejemplo entren a


Atte: Lucifer
(dedicada para mi tierna niña que siempre esta a mi lado: Ana lucia)
Suggest correction
Give kudos to tab author, rate the tab!
1 2 3 4 5
comments
print report bad tab
guest
You may want to rate the tab now too:
select rating
Wanna post a correction for this tab? Suggest correction